Song name
# A B C D E F G H I J K L M N O P Q R S T U V W X Y Z

Zebrahead - Now Or Never tab

Band:   Zebrahead
Song:   Now or Never
Album:  Playmate of the Year

Tabbed by: Anthony Calderone

Intro: Guitar 1
--------------------------------------------10-8------15-15-13-10b/11-10---|
-8-8-6-8-8-6-8-8-11-10-6--6-8-8-6-8-8-6-8-8------8--8----------------------|
---------------------------------------------------------------------------|
---------------------------------------------------------------------------|
---------------------------------------------------------------------------|
---------------------------------------------------------------------------|

-8---------------------------------|
---8--6-8-8-6-8-8-6-8-8-6-8-8------|
-----------------------------------|
-----------------------------------|
-----------------------------------|
-----------------------------------|

Intro: Guitar 2
--------------------------|
--------------------------|
------8888--333-----------|
-555--8888--333--3333-----|
-555--6666--111--3333-----|
-333-------------1111-----|

Verse: Guitar 1 (weird sounding effect)
-------------------------101010-888-----|
-666-888-666-888-666-888-101010-888-----|
----------------------------------------|
----------------------------------------|
----------------------------------------|
----------------------------------------|

Verse: Guitar 2 (weird sounding effect)
--13131313-15---------|
--13131313-15---------|
----------------------|
----------------------|
----------------------|
----------------------|

Pre-Chorus: Guitar 2
------------------|
------------------|
------------------|
--5--5555--5------|
--5--5555--5------|
--3--3333--3------|
     _pm_

Pre-Chorus: Guitar 1
--15-------------|
-----15-13-------|
-----------------|
-----------------|
-----------------|
-----------------|

Chorus: Both Guitars
----------------------------|
----------------------------|
------8888--333-------------|
-555--8888--333--3333-------|
-555--6666--111--3333-------|
-333-------------1111-------|

Intro: (Shortened) Guitar 1
----------------------------15-15-13-10b/11-10-8---------------------------|
-8-8-6-8-8-6-8-8-11-10-6--6----------------------8--8-8-6-8-8-6-8-8-6-8-8--|
---------------------------------------------------------------------------|
---------------------------------------------------------------------------|
---------------------------------------------------------------------------|
---------------------------------------------------------------------------|

Same intro for guitar 2

Verse   This time guitar 1 doesn't play during "Get off, get on it"

Pre-Chorus

Chorus

Bridge: Both Guitars
--------------------------------|
--------------------------------|
--------------------------------|
-5-5--7-7--3-3--3-3--5555-------|
-5-5--7-7--3-3--3-3--5555-------|
-3-3--5-5--1-1--1-1--3333-------|


Solo: Guitar 1 (really fast picking)
-151515-151515-151515-151515-151515-151515----------------111111-101010----|
-------------------------------------------888/101010-666------------------|
---------------------------------------------------------------------------|
---------------------------------------------------------------------------|
---------------------------------------------------------------------------|
---------------------------------------------------------------------------|

-888---------151515-151515-151515-151515-151515-151515---------------------|
-----101010---------------------------------------------888/101010-666-----|
---------------------------------------------------------------------------|
---------------------------------------------------------------------------|
---------------------------------------------------------------------------|
---------------------------------------------------------------------------|

-11111-101010-888--------111111-101010-888-----------|
------------------101010-------------------101010----|
-----------------------------------------------------|
-----------------------------------------------------|
-----------------------------------------------------|
-----------------------------------------------------|


Guitar 2 plays bridge during solo

Interlude: Guitar 2
---------------------------------|
---------------------------------|
---------------------------------|
-5-5555-5-5555-5-5555-5----------|
-5-5555-5-5555-5-5555-5----------|
-3-3333-3-3333-3-3333-3----------|
   _pm_   _pm_   _pm_

Interlude: Guitar 1
-15--------15--------15---15-------|
----15-13-----15-13-----15---15----|
-----------------------------------|
-----------------------------------|
-----------------------------------|
-----------------------------------|

Chorus

3rd time Guitar 1 plays full intro

Bridge


Enjoy!
Tap to rate this tab
# A B C D E F G H I J K L M N O P Q R S T U V W X Y Z