Song name
# A B C D E F G H I J K L M N O P Q R S T U V W X Y Z

Zebrahead - Now Or Never tab

Artist: Zebrahead
Song: Now Or Never
Album: Playmate Of The Year (2000)
Tuning: Standard EADGBe

This is my very first tab. I hope you guys like it. I watched almost all the
performances of this song and I made this as close to those as possible.

Intro:
Gtr. 1
e-------------------------------------------------------------------------------|
B--11-11-10-11---11-10-11-10--------------11-11-10-11---11-10-11-10-15-13-------|
G--12-12-10-12---12-10-12-10-15-14--------12-12-10-12---12-10-12-10--------12---|
D-----------------------------------15------------------------------------------|
A-------------------------------------------------------------------------------|
E-------------------------------------------------------------------------------|

15-15-13-10-10-10br-8--------------------------------------------|
------------------------10----11-11-10-11---11-10-11---11-10-11--|
------------------------------12-12-10-12---12-10-12---12-10-12--|
-----------------------------------------------------------------|
-----------------------------------------------------------------|
-----------------------------------------------------------------|



Gtr. 2 (this is also the chorus)
e---------------------------------------------|
B---------------------------------------------|
G----------8---8-8----------------------------|    x4
D--5-5-5---8---8-8---8---8-8---3---3-3--------|
A--5-5-5---6---6-6---8---8-8---3---3-3--------|
E--3-3-3-------------6---6-6---1---1-1--------|

Verse 1: (during each verse Greg plays a funky slap rhythm on his guitar while Justin 
plays this lick. Listen to the song for the exact timing)
e--10-13-10-13b-------|
B---------------------|
G---------------------|     x3
D---------------------|
A---------------------|
E---------------------|

This riff leads into every chorus. (Palm muted)
e---------------------|
B---------------------|
G---------------------|
D--4-5-5-5-4----------|
A--4-5-5-5-4----------|
E--2-3-3-3-2----------|

Chorus 1
Gtr. 1 (same as Intro guitar 2)  x4

Gtr. 2
e--13-------13-------13-----------|
B-----11-11----11-11----11--------|
G---------------------------------|     x8
D---------------------------------|
A---------------------------------|
E---------------------------------|

Interlude:
Gtr. 1 (same as Intro guitar 2)  x3

Gtr. 2
e---------------------------------------15-15-13-10-10-10br-8-|
B--11-11-10-11---11-10-11-10----------------------------------|
G--12-12-10-12---12-10-12-10-15-14----------------------------|
D-----------------------------------15------------------------|
A-------------------------------------------------------------|
E-------------------------------------------------------------|

--------------------------------------------|
-10----11-11-10-11---11-10-11---11-10-11----|
-------12-12-10-12---12-10-12---12-10-12----|
--------------------------------------------|
--------------------------------------------|
--------------------------------------------|


Verse 2: same as Verse 1

Chorus 2: same as Chorus 1

Bridge/Solo:
This is the rhythm for the bridge and solo
e-------------------------------------|
B-------------------------------------|
G--------3-3---------------6-6-7-7----|   x8
D--5-5---3-3---3-3---3---3-6-6-7-7----|
A--5-5---1-1---3-3---3---3-4-4-5-5----|
E--3-3---------1-1---1---1------------|

This is played before Chorus 3 (Palm muted)
e-----------------------------------|
B-----------------------------------|
G-----------------------------------|
D--4-5-5-4-4-5-5-4-4-5-5-4-4-5------|
A--4-5-5-4-4-5-5-4-4-5-5-4-4-5------|
E--2-3-3-2-2-3-3-2-2-3-3-2-2-3------|

Chorus 3: same as Chorus 1

Outro: both guitars same as Intro

and then:
e--------------------------------------|
B--------------------------------------|
G--------3-3---------------6-6-7-7-----|   x3
D--5-5---3-3---3-3---3---3-6-6-7-7-----|
A--5-5---1-1---3-3---3---3-4-4-5-5-----|
E--3-3---------1-1---1---1-------------|

and end with:
e--------------|
B--------------|
G--------3-3---|
D--5-5---3-3---|
A--5-5---1-1---|
E--3-3---------|

and thats the whole song! (minus the solo). If you see any mistakes or have a better way 
to play certain parts feel free to leave a comment
and I will correct it. Hope ya'll like it. MFZB!
Tap to rate this tab
 
# A B C D E F G H I J K L M N O P Q R S T U V W X Y Z