Song name
# A B C D E F G H I J K L M N O P Q R S T U V W X Y Z

Zebrahead - Real Me tab

Help us improve GuitareTab! Take a short survey!
Zebrahead 
Waste of Mind tabs
by Ryan

The Real Me - Standard Tuning

Riff 1
========
guitar 1:

1)-------------------------
2)---8---------------------
3)---9-x-x-9-8-8-8-x-8-8-8-
4)---9-x-x-8-7-7-7-x-7-7-7-
5)---7-x-x-7-6-6-6-x-6-6-6-
6)-0---x-x-8-7-7-7-x-7-7-7-

guitar 2:

1)----------------------------------
2)-12-------------------------------
3)----14-12-14b-12------------------
4)-----------------14--13--14/16/14-
5)----------------------------------
6)----------------------------------

Riff 2
========
1)---------------------------------------------------------
2)--------------------------------------------------------
3)--------------------------------------------------------
4)-77-7-7-77-7-7-77-7-7-77-7-7-8-7-7-77-7-7-7-7-7-7-7-7-7-
5)-77-7-7-77-7-7-77-7-7-77-7-7-8-7-7-77-7-7-7-7-7-7-7-7-7-
6)-55-5-5-55-5-5-55-5-5-55-5-5-6-5-5-55-5-5-5-5-5-5-5-5-5-
                                             |    P.M.   |

Chorus
========
1)---------------------------------
2)---------------------------------
3)-5-5-5-5-7-7-7-7---------4-4-4-4-
4)-5-5-5-5-7-7-7-7-5-5-5-5-4-4-4-4-
5)-3-3-3-3-5-5-5-5-5-5-5-5-2-2-2-2-
6)-----------------3-3-3-3---------

Fill 1
========
1)-----------------------------------------------
2)-----------------------------------------------
3)----------7---------------------8----------8---
4)-------6------------8------------------------7-
5)----7------------7----------6----------6-------
6)-0-----------8----------7----------7-----------
Related for Real Me tab