Song name
# A B C D E F G H I J K L M N O P Q R S T U V W X Y Z

Zebrahead - Alone tab

Another great song by Zebrahead that I play with my band.


KEY
5b6r5 (play the 5, bend to 6, release to 5)
0h2 (play the 0, hammer on to 2)

INTRO (one guitar does this, while the other one
does random muted wah-wah noises)
e------------------|
B------------------|
G--14-14-14-14-12--|
D--xx-xx-xx-xx-xx--| (x4)
A--12-12-12-12-10--|
E------------------|

VERSE (wah-wah) (guitar 2 plays INTRO)
e------------------------------------------|
B------------------------------------------|
G--5b6r5-2---5b6r5-2---5b6r5-2--0h2-0h2----|
D------------------------------------------| (x2)
A------------------------------------------|
E------------------------------------------|

CHORUS ("Get up get up...")
e---------------|
B---------------|
G--2------------|
D--2---2-2---5--| (x3)
A--0---2-2---5--|
E------0-0---3--|

e-----|
B-----|
G--2--|
D--2--|
A--0--|
E-----|

INTRO

VERSE

CHORUS (whole thing x2)

CHORUS PART 2
e--------------------------------------------|
B--------------------------------------------|
G-5555555555555555--2------------2-----------|
D-5555555555555555--2---2-2--5---2---2-2--5--| (x2)
A-3333333333333333--0---2-2--5---0---2-2--5--|
E-----------------------0-0--3-------0-0--3--|

SOLO
Lead Guitar...
e-----12-10-8-------12-10-8--------12-10-8----13-12-10-13-|
B--10------------10---------------------------------------|
G-------------------------------10------------------------|
D---------------------------------------------------------| (x2)
A---------------------------------------------------------|
E---------------------------------------------------------|

...While rythm guitar plays this
e---------------------------------------------------------|
B---------------------------------------------------------|
G--2------------------------------------------5-----------|
D--2----------------------------3-------------5-----------| (x2)
A--0----------------------------3-------------3-----------|
E-------------------------------1-------------------------|

BREAK (no guitar)

CHORUS (whole thing x2)

CHORUS PART 2

END
e---------------|
B---------------|
G--2------------|
D--2---2-2---5--| (x2)
A--0---2-2---5--|
E------0-0---3--|

e-----|
B-----|
G--2--|
D--2--|
A--0--|
E-----|


Tap to rate this tab
# A B C D E F G H I J K L M N O P Q R S T U V W X Y Z