Song name
# A B C D E F G H I J K L M N O P Q R S T U V W X Y Z

Zebrahead - His World tab

His World - Zebrahead

Tabbed by DarkGunn.

Tuning = E Standard (EADGBe)

K, this is the Sonic the Hedgehog version by Ali Tabatabaee & Matty Lewis. I know these 
are not particually
accurate but I tabbed it according to what I heard, the solo especially is definitely no 
near perfect.


If you have any questions about the tab e-mail me at joshuakingdbz@hotmail.com


Intro [00:23 - 00:33]

e|----------------------------------|------------------------------|
B|----------------------------------|------------------------------|
G|----------------------------------|------------------------------|
D|----7-7---5---3-3---2/4-----------|---7-7---5----2--4--6--7------|
A|----5-5---3---1-1---0/2-----------|---5-5---3----0--2--4--5------|
E|----------------------------------|------------------------------|


Verse [00:34 - 00:48]

e|--------------------|------------------|-------------------|-------------|
B|--------------------|------------------|-------------------|-------------|
G|--------------------|------------------|-------------------|-------------|
D|----7--7--7-7-7-----|----5--5--5-5-5---|----3--3--3-3-3----|---2--4------|
A|----5--5--5-5-5-----|----3--3--3-3-3---|----1--1--1-1-1----|---0--2------|
E|--------------------|------------------|-------------------|-------------|


  --------------------|------------------|---------------------------------|
  --------------------|------------------|---------------------------------|
  --------------------|------------------|---------------------------------|
  ---7--7--7-7-7------|----5--5--5-5-5---|----2--4--6--7--2--4--6--v7------|
  ---5--5--5-5-5------|----3--3--3-3-3---|----0--2--4--5--0--2--4--v5------|
  --------------------|------------------|---------------------------------|


Chorus [00:49 - 01:30]

e|-------------------------------------------------------------|
B|-------------------------------------------------------------|
G|-------------------------------------------------------------|
D|----4-4--4-4-4--6-6--6-6-6--8-8--8-8-8-----------------------|     X 3
A|----2-2--2-2-2--4-4--4-4-4--6-6--6-6-6----4-4--4-4-4---------|
E|------------------------------------------2-2--2-2-2---------|


e|-------------------------------------------------------------|
B|-------------------------------------------------------------|
G|-------------------------------------------------------------|
D|----4-4--4-4-4--6-6--6-6-6--8-8--8-8-8--11-11--11-11-11------|
A|----2-2--2-2-2--4-4--4-4-4--6-6--6-6-6--9--9---9--9--9-------|
E|-------------------------------------------------------------|


Intro  [01:31 - 01:41]

e|----------------------------------|------------------------------|
B|----------------------------------|------------------------------|
G|----------------------------------|------------------------------|
D|----7-7---5---3-3---2--4----------|---7-7---5----2--4--6--7------|
A|----5-5---3---1-1---0--2----------|---5-5---3----0--2--4--5------|
E|----------------------------------|------------------------------|


Verse  [01:42 - 02:18]

e|--------------------|------------------|-------------------|-------------|
B|--------------------|------------------|-------------------|-------------|
G|--------------------|------------------|-------------------|-------------|
D|----7--7--7-7-7-----|----5--5--5-5-5---|----3--3--3-3-3----|---2--4------|   X5
A|----5--5--5-5-5-----|----3--3--3-3-3---|----1--1--1-1-1----|---0--2------|
E|--------------------|------------------|-------------------|-------------|


  --------------------|------------------|----------------------------|
  --------------------|------------------|----------------------------|
  --------------------|------------------|----------------------------|
  ---7--7--7-7-7------|----5--5--5-5-5---|----2--4--6--7--2--4--6--7--|
  ---5--5--5-5-5------|----3--3--3-3-3---|----0--2--4--5--0--2--4--5--|
  --------------------|------------------|----------------------------|

Chorus [02:19 - 03:00]

e|-------------------------------------------------------------|
B|-------------------------------------------------------------|
G|-------------------------------------------------------------|
D|----4-4--4-4-4--6-6--6-6-6--8-8--8-8-8-----------------------|     X 3
A|----2-2--2-2-2--4-4--4-4-4--6-6--6-6-6----4-4--4-4-4---------|
E|------------------------------------------2-2--2-2-2---------|


  -------------------------------------------------------------|
  -------------------------------------------------------------|
  -------------------------------------------------------------|
  ----4-4--4-4-4--6-6--6-6-6--8-8--8-8-8--11-11--11-11-11------|
  ----2-2--2-2-2--4-4--4-4-4--6-6--6-6-6--9--9---9--9--9-------|
  -------------------------------------------------------------|


  ------------------------------------------------|
  ------------------------------------------------|
  ------------------------------------------------|  Play this section at (02:56) and 
onto solo.
  ----4-4--4-4-4--6-6--6-6-6--8-8--8-8-8--11/3----|
  ----2-2--2-2-2--4-4--4-4-4--6-6--6-6-6--9/ 1----|
  ------------------------------------------------|

Solo  [03:01 - 03:44]

e|------------------------------------------------------------------------------|
B|-------------------------------------------------------8-6--------------------|
G|-------8---v6-----8--v6---4---3---------8---v6--------------8--6--------------|
D|--------------------------------------------------6-----------------8---------|
A|----6------------------------------6------------------------------------------|
E|------------------------------------------------------------------------------|
-
  ------------------------------------------------------------------------------------------------|
  ------------------------------------------------------------------7---7--^10---8-7--------------|
  -------8---v6-----8--v6---4---3-----^8---6----6--10---6--6--6--6--------------------------------|
  ------------------------------------------------------------------------------------------------|
  ----6-------------------------------------------------------------------------------------------|
  ------------------------------------------------------------------------------------------------|

  ------------------------------------------------------------------------------------------------|
  ------------------------------------------------------------------------------------------------|
  ----6-8---5-5-5-5-5-5-5-5--6--4-4-4-4-4-4-4-4--5------------------------------------------------|
  ---------------------------------------------------^8----8--7---5-5-----------------------------|
  ---------------------------------------------------------------------^12----8-11\8--8--10--5--5-|
  ------------------------------------------------------------------------------------------------|

  ------------------------------------------------------------------------------------------------|
  -----------------------------------------------------------------^16---12-----------------------|
  ------------------------------------------------------------------------------------------------|
  ----------------------------------------------11--11-11-11--9--8------------v13------8-8-8-8-8--|
  ---v6----8-v9---11--v13---15-16---X--14--14------------------------------------------6-6-6-6-6--|
  ------------------------------------------------------------------------------------------------|

Ending [03:45 - 04:14]                                             ^(Bend the 16th fret 
way
e|----------------------------------|                                 then return to normal.)
B|----------------------------------|
G|----------------------------------| X4
D|----7-7---v5---3-3---2--4---------|
A|----5-5---v3---1-1---0--2---------|
E|----------------------------------|


e|--------------------|------------------|-------------------|-------------|
B|--------------------|------------------|-------------------|-------------|
G|--------------------|------------------|-------------------|-------------|
D|----7--7--7-7-------|----5--5--5-5-----|----3--3--3-3------|---2--4------|
A|----5--5--5-5-------|----3--3--3-3-----|----1--1--1-1------|---0--2------|
E|--------------------|------------------|-------------------|-------------|


  --------------------|------------------|
  --------------------|------------------|
  --------------------|------------------|
  ---7--7--7-7--------|----5--5--5-5-----|
  ---5--5--5-5--------|----3--3--3-3-----|
  --------------------|------------------|


Outro [04:15 - 04:38]


 |-------------------------------------------------|
 |-------------------------------------------------|
 |-------------------------------------------------|
 |----2--4--6--7--2--4--6--7--2--4--6--v7----------|
 |----0--2--4--5--0--2--4--5--0--2--4--v5------v3--|
 |--------------------=------------------------v1--|
Tap to rate this tab
 
# A B C D E F G H I J K L M N O P Q R S T U V W X Y Z