Zebrahead - His World tab

TABBED BY: ELMO FOR MY VALENTINE
HIS WORLD - ZEBRAHEAD (PUNK ROCK VERSION, NOT INSTRUMENTAL)
QUESTIONS AND OTHER THINGS YOU ASK: elmontoya_93@hotmail.com

IīVE SUBMITTED THIS TAB CAUSE THE OTHER TABS DONīT HAVE THIS VERSION, THE OTHERS 
ARE FOR THE INSTRUMENTAL VERSION, SO IF YOU LIKE THIS VERSION TAKE A LOOK AT THIS TAB ;)


INTRO

Lead Guitar                                                                                       \
|-----------------------------------------------------------|                                     |
|-----------------------------------------------------------|                                     |
|--13--X--15--X--16--X--18--X--16--X--15--X--16--15--13-----|x5                                   |
|-----------------------------------------------------------|                                     |
|-----------------------------------------------------------|                                     |
|-----------------------------------------------------------|                                     |
                                                                                                  |
Rhythym Guitar                                                                                    |
|-----------------------------------------------------------|                                     |
|-----------------------------------------------------------|                                     |
|-----------------------------------------------------------|                                     |
|--6-6-6-6-8-8-8-8-9-9-9-9-11-11-11-11----------------------|x3 (Start after 2 Lead Gtr Compasses)|
|--6-6-6-6-8-8-8-8-9-9-9-9-11-11-11-11----------------------|                                     |
|--4-4-4-4-6-6-6-6-7-7-7-7-9--9--9--9-----------------------|                                     /


Lead Guitar
|------------------------|
|------------------------|
|----8~~~~~~~~~~~~~~~----|
|------------------------|
|------------------------|
|------------------------|



VERSE 1

Rhythym Guitar                                                                                \
|-----------------------------------------------------------|                                 |
|-----------------------------------------------------------|                                 |
|-----------------------------------------------------------|                                 |
|--13-13--11-11--9-9---6-6-6-6-8-8-8-8----------------------| (x4)                            |
|--13-13--11-11--9-9---6-6-6-6-8-8-8-8----------------------|                                 |
|--11-11--9--9---7-7---4-4-4-4-6-6-6-6----------------------|                                 |
                                                                                              |
Lead Guitar                                                                                   |
|-----------------------------------------------------------|                                 |
|-----------------------------------------------------------|                                 |
|--8------10------11------13------15------------------------|                                 | 
|--x-(x8)-x--(x8)-x--(x8)-x--(x4)-x--(x4)-------------------| (x2) (after 2 Rhythym compasses)|
|--6------8-------9-------11------13------------------------|                                 |
|-----------------------------------------------------------|                                 /


PRE-CHORUS

Rhythym Guitar
|-----------------------------------------------------------|----------------------------------|
|-----------------------------------------------------------|----------------------------------|
|-----------------------------------------------------------|----------------------------------|
|--6-6-6-6-8-8-8-8-9-9-9-9-11-11-11-11----------------------|--6-6-6-6-8-8-8-8-9-9-9-9--11~~~--|
|--6-6-6-6-8-8-8-8-9-9-9-9-11-11-11-11----------------------|--6-6-6-6-8-8-8-8-9-9-9-9--11~~~--|
|--4-4-4-4-6-6-6-6-7-7-7-7-9--9--9--9-----------------------|--4-4-4-4-6-6-6-6-7-7-7-7--9~~~~--|

Lead Guitar
|-----------------------------------------------------------|----------------------------------|
|-----------------------------------------------------------|----------------------------------|
|--4-4-4-4-6-6-6-6-8-8-8-8-10-10-10-10----------------------|--4-4-4-4-6-6-6-6-8-8-8-8--10~~~--|
|--x-x-x-x-x-x-x-x-x-x-x-x-x--x--x--x-----------------------|--x-x-x-x-x-x-x-x-x-x-x-x--x~~~~--|
|--2-2-2-2-4-4-4-4-6-6-6-6-8--8--8--8-----------------------|--2-2-2-2-4-4-4-4-6-6-6-6--8~~~~--|
|-----------------------------------------------------------|----------------------------------|


CHORUS

Rhythym Guitar
|-------------------------------|--------------------------------|
|-------------------------------|--------------------------------|
|-----------------8-------------|-----------------8------11------|
|--9------11------8-(x7)-4------|--9------11------8-(x7)-11-(x7)-| (x2)
|--9-(x7)-11-(x7)-6------4-(x7)-|--9-(x7)-11-(x7)-6------9-------|
|--7------9--------------2------|--7------9----------------------|

Lead Guitar
|-------------------------------|--------------------------------------|
|-------------------------------|-----------------19-18----18-18h19v~~-|
|--4------6------8------11------|--4------6-------------20-------------|
|--x-(x7)-x-(x7)-x-(x7)-x--(x7)-|--x-(x7)-x-(x7)-----------------------|
|--2------4------6------9-------|--2------4----------------------------|
|-------------------------------|--------------------------------------|

|-------------------------------|------------------------------------------------|
|-------------------------------|-----------------16-14----14-16-14----14-16~~~--|
|--4------6------8------11------|--4------6-------------16----------16-----------|
|--x-(x7)-x-(x7)-x-(x7)-x--(x7)-|--x-(x7)-x-(x7)---------------------------------|
|--2------4------6------9-------|--2------4--------------------------------------|
|-------------------------------|------------------------------------------------|


REPEAT INTRO, VERSE 1, PRE-CHORUS AND CHORUS

SOLO
|-------------------------------------------------------|
|---------------------------------9--11--12--11--9------|
|--6/8-8-8-8/10-10-10-10/11-11-11------------------11v--|
|-------------------------------------------------------|
|-------------------------------------------------------|
|-------------------------------------------------------|

|---------------------------------------------------------------------------------|
|---------------------------------------------------------------------------------|
|--10--10--11--11b--11-10-11-10-11--11b-11-10-11-10-11--11b-11-10-11-10--8---6-8--|
|---------------------------------------------------------------------------------|
|---------------------------------------------------------------------------------|
|---------------------------------------------------------------------------------|

   T         T         T         T         T         T         T         T
|----------------------------------------------------------------------------------|
|--19h15h12--21h15h12--19h15h12--21h15h12--19h15h12--21h15h12--19h15h12--21h15h12--|
|----------------------------------------------------------------------------------|
|----------------------------------------------------------------------------------|
|----------------------------------------------------------------------------------|
|----------------------------------------------------------------------------------|

   T         T         T         T         T         T         T         T
|---------------------------------------------------------------------------------------|
|--19h14h11--21h14h11--19h14h11--21h14h11--19h14h11--21h14h11--18h14h11--16h14h11--14~~-|
|---------------------------------------------------------------------------------------|
|---------------------------------------------------------------------------------------|
|---------------------------------------------------------------------------------------|
|---------------------------------------------------------------------------------------|

|---------------------------------------|-------------------------------------------------------|
|------11-----11-----11-----11-----11---|---------------------9-11-12-14-12-14-12-14--14b~~~~~--|
|---------------------------------------|---------8----8-9-11-----------------------------------|
|--8-9----8-9----8-9----8-9----8-9----9-|--8-9-11---11------------------------------------------|
|---------------------------------------|-------------------------------------------------------|
|---------------------------------------|-------------------------------------------------------|


HEREīS LIKE AN INTERLUDE AND THEN REPEAT CHORUS

THEN THIS
|-----------------------------------------------------------|----------------------------------|
|-----------------------------------------------------------|----------------------------------|
|-----------------------------------------------------------|--------8~~~~~~~~~~~~~~~~~--------|
|--6-6-6-6-8-8-8-8-9-9-9-9-11-11-11-11----------------------|--------8~~~~~~~~~~~~~~~~~--------|
|--6-6-6-6-8-8-8-8-9-9-9-9-11-11-11-11----------------------|--------6~~~~~~~~~~~~~~~~~--------|
|--4-4-4-4-6-6-6-6-7-7-7-7-9--9--9--9-----------------------|----------------------------------|
Tap to rate this tab
 
# A B C D E F G H I J K L M N O P Q R S T U V W X Y Z