Song name
# A B C D E F G H I J K L M N O P Q R S T U V W X Y Z

Zebrahead - Time tab

Time correctly tabbed. hopefully this helps you :)

e|-------------------------------------------------------------------------|
B|-------------------------------------------------------------------------|
G|-------------------------------------------------------------------------|
D|-------------------------------------------------------------------------|
A|-77777778877777----777777788---------------------------------------------|
E|----------------66----------66666655-------------------------------------|
Riff 1(guitar 1)         Riff 2(guitar 1)
e|-4-5-4-----4-5-4------|-4-5-4-----4-5-4-12-12-10--------------------------|
B|-------5-3-------5-3--|--------5-3----------------------------------------|
G|----------------------|---------------------------------------------------|
D|----------------------|---------------------------------------------------|
A|----------------------|---------------------------------------------------|
E|----------------------|---------------------------------------------------|
Riff 3
e|--------------------------------------------------------------------|
B|--------------------------------------------------------------------|
G|--------------------------------------------------------------------|
D|--------------------------------------------------------------------|
A|---7---7-----------7---7--------------------------------------------|
E|-0---0---5(bend)-0---0---6(bend)------------------------------------|
Riff 4
e|--------------------------------------------------------------------|
B|--------------------------------------------------------------------|
G|--------------------------------------------------------------------|
D|-999999-10-10-999999----999999-10-10--------------------------------|
A|-777777-8--8--777777-88-777777-8--8--88888877-----------------------|
E|---------------------66--------------66666655-----------------------|
Riff 5
e|--------------------------------------------------------------------|
B|-8-9-8-8-9-8--------------------------------------------------------|
G|-8-9-8-8-9-8--------------------------------------------------------|
D|-8-9-8-8-9-8--------------------------------------------------------|
A|-6-7-6-6-7-6--------------------------------------------------------|
E|--------------------------------------------------------------------|
Riff 6
e|-16-16-16-16-16--16-16-16-16-16--16-16-16-16-16--16-16-16-16-16-16-17---|
B|------------------------------------------------------------------------|
G|------------------------------------------------------------------------|
D|------------------------------------------------------------------------|
A|------------------------------------------------------------------------|
E|------------------------------------------------------------------------|
Tap to rate this tab
# A B C D E F G H I J K L M N O P Q R S T U V W X Y Z