Song name
# A B C D E F G H I J K L M N O P Q R S T U V W X Y Z

Zebrahead - Truck Stops And Tail Lights tab

http://www.youtube.com/watch?v=dHSGIh-S0Lg
 



Intro 1 Guitar 1

e------------------|  x4
B------------------|
G-4-------7--------|
D-4---5---7---7----| Listen to song for strumming
A-2---5---5---7----|
E-----3-------5----|


Intro 2 Guitar 2

e------------------------------------|
B------------------------------------|
G------------------------------------|
D---4--2--0--2--0-----0--------------|
A------------------2-----2--0--2-----|
E------------------------------------|
                                           Listen to song for strumming

e------------------------------------|
B------------------------------------|
G------------------------------------|
D---4--2--0--2--0--5-5-5--4----------|
A------------------------------------|
E------------------------------------|


Verse (Like the intro, just listen)



Chorus


E------------------------|
B------------------------|
G-7777------4444---------|
D-7777-7777-4444-55-77---|
A-5555-7777-2222-55-77---|
E------5555------33-55---|
                                      



Solo
E----------------------------------------------------------------------| x2
B-12-------14-------15-------14-------12-------14-------17-15-14-15----|
G-14^(16)--16^(18)--17^(19)--16^(18)--14^(16)--16^(18)-----------------|
D----------------------------------------------------------------------|
A----------------------------------------------------------------------|
E----------------------------------------------------------------------|

E----------------------------------------------------------------------| 
B-17-15-17-19-17-15----17-15-17-19-17-15----17-15-17-19-20-19-17-15-12-|
G----------------------------------------------------------------------|
D----------------------------------------------------------------------|
A----------------------------------------------------------------------|
E----------------------------------------------------------------------|




E----------|
B----------|
G-5--------|
D-5-5-7-3--| (Listen to song to hear when to not palm mute)
A-3-5-7-3--|
E---3-5-1--|
  


Bridge(after solo)

E-----------------|
B-----------------|
G-----------------|
D-6-5-4-4-4-4-4---|
A-6-5-4-4-4-4-4---|
E-4-3-2-2-2-2-2---|


Play along the song, it's no difficult ;)
Tap to rate this tab
# A B C D E F G H I J K L M N O P Q R S T U V W X Y Z