Song name
# A B C D E F G H I J K L M N O P Q R S T U V W X Y Z

Zeca Baleiro - Babylon tab

http://www2.uol.com.br/zecabaleiro/

(intro) Dm Eo

               Dm                                          Eo

E|------------0--0p1-------------              e|-----------0--0p3-------|
B|---------3----------3----------              B|--------2----------2----|
G|------2----------------2-------              G|------3--------------3--|       (2x)
D|---0---------------------------              D|----2-------------------|
A|-------------------------------              A|------------------------|
E|-------------------------------              E|------------------------|

(solo gaita - repete algumas vezes na musica - para violao)

E|---10------------------------------------------------------|
B|------10------------------------10h11--11------------------|
G|---------10----------------10h12----------12--11h10--------|
D|------------12-------11h12---------------------------------|
A|---------------10h12---------------------------------------|
E|-----------------------------------------------------------|

E|-----------------------------------------------------------|
B|-----------------------------------------------------------|
G|---10h11-11-10--------------------9h10-10-9----------------|
D|----------------12----------11h12-----------12-11----------|
A|-------------------12-10h12--------------------------------|
E|-----------------------------------------------------------|

Dm               Eo
baby i'm so alone
                        Dm     Eo
vamos pra babylon
Dm                          Eo
viver a pao-de-lo e moet chandon
                        Dm             Eo
vamos pra babylon    vamos pra babylon
Dm                                     Eo
gozar sem se preocupar com amanha
                        Dm             Eo
vamos pra babylon   baby baby babylon

E|----------3-------------3------------3-------3--------3--|
B|--------3----3--------3---3--------3--------3-------3----|
G|------3--------3----3-------3----3--------3-------3------|
D|----5-------------4------------3--------2-------1--------|
A|---------------------------------------------------------|
E|---------------------------------------------------------|

      Gm/D                        Ebmaj7
comprar o que houver au revoir rale
         Gm             Gm/F                  Eo
finesse s'il vous plait mon dieu je t'aime glamour
     Gm/D
manhattan by night
     Ebmaj7             Gm             Gm/F    Eo     C#dim
passear de iate nos mares do pacifico sul
Dm                          Eo
baby i'm alive like a rolling stone
                        Dm   Eo
vamos pra babylon
Dm                                 Eo
vida e um souvenir made in hong kong
                        Dm
vamos pra babylon babulon
 Eo
vamos pra babylon
Dm                                    Eo
vem ser feliz ao lado desse bon vivant
                        Dm         Eo
vamos pra babylon    baby baby babylon
     Gm/D                  Ebmaj7
de tudo provar champanhe caviar
  Gm            Gm/F                     Eo
scotch escargot rayban bye bye misere
        Gm/D           Ebmaj7
kaya now to me o ceu seja aqui
     Gm        Gm/F        Eo   C#dim
minha religiao e o prazer
Dm
nao tenho dinheiro pra pagar a minha ioga
Am
nao tenho dinheiro pra bancar a minha droga
Gm
eu nao tenho renda pra descolar a merenda
Eš                                 C#dim
cansei de ser duro vou botar minh'alma a venda
Dm
eu nao tenho grana pra sair com o meu broto
Am
eu nao compro roupa por isso que eu ando roto
Gm
nada vem de graca nem o pao nem a cachaca
E                                  Eb         Dm
quero ser o cacador ando cansado de ser caca
Tap to rate this tab
 
# A B C D E F G H I J K L M N O P Q R S T U V W X Y Z