Guitaretab - guitar tabs
Song name
# A B C D E F G H I J K L M N O P Q R S T U V W X Y Z
Home / Z / Zed / Oh Daisy tab

Zed - Oh Daisy tab

Tabbed By Paul.K and Frank.A

Intro x2 & Verse
e ---------2-------2-------5--------4-----|   This is  played twice for the intro
B ---------2-------2-------5--------4-----|   and then three times for the first verse.
G ----------------------------------------|
D ----------------------------------------|
A ----------------------5------4-4--------|
E ---0-2------2-2-----0-------------------|
[ Tab from: ]
e ----------------------------------------|
B -----6--9--7----------------------------|   This is played at the end of every line
G --6-------------------------------------|   during the verses.
D ----------------------------------------|
A ----------------------------------------|
E ----------------------------------------|


e ----------------------------------------|   This is played throughout the chorus
B ----------------------------------------|
G --------------------7-7-7-7--6-6-6-6----|
D ---4-4-4-4-4-4-4-4--7-7-7-7--6-6-6-6----|
A ---4-4-4-4-4-4-4-4--5-5-5-5--4-4-4-4----|
E ---2-2-2-2-2-2-2-2----------------------|

This is as fer as we got but we will try to get the rest of the song.
Related for Oh Daisy tab