Song name
# A B C D E F G H I J K L M N O P Q R S T U V W X Y Z

Zee Avi - Bitter Heart Acoustic tab

Hi! Waz Up?  Im Mexican so, i gonna do my best with my english.

There are 4 simple chords:  C - Am - F# - G#

OK. Here we Go.

First, Put Capo in 2nd fret.

Repeat this in verse:
    C              Am              F#             G#
e|-------------------------------------------------------4---|
B|----1--1---1--1----1--1---1--1-------------------------4---|
G|----0--0---0--0----2--2---2--2----3--3--3------5--55---5---|
D|------2------2------2-------2-----4--4--4------6--66-------|
A|---3------3------0-------0---------4-------------6---------|
E|---------------------------------2-----2-22-3-4------------|

     C           		 Am
Sun rays come down as seen when they hit the ground,
                F#                        G#
Children spinning around till they fall down down down.
   C                            Am
I wait for you: it's been two hours now,
                   F#
You're still somewhere in town,
              G#
Your dinners getting cold.
   C                      Am
I rest my case you are always this late,
                  F#                   G#         
And you know how much I hate waiting around 'round 'round,

Now, in Chorus pluck this:
    F#           G#          
e|-----------------------------|
B|-----------------------------|
G|---3--3--3--3---5--5--5-4----|
D|---4--4--4--4---6--6--6-5----|
A|-----4-----4------6----------|
E|--2-----2------4-----4-3-----|

Chorus:
F#                   G#                          F#
Bitter heart, bitter heart tries to keep it all inside,
                       G#                               F#
Bitter heart, bitter heart shadows will help you try to hide,
                          G#                              F#
Bitter heart, my bitter heart is gettin' just a little fragile,
                      G#
Bitter heart, bitter heart of mine.

Verse:
And then you come and tell me the same reason as you did yesterday,
So tell me whats her name?
Doo doo da dum, doo doo da dum, doo doo doo doo doo doo da da dum dum,
da da da da dum, da da da da dum, da da da da dum.

Chorus:
Bitter heart, bitter heart tries to keep it all inside
Bitter heart, bitter heart shadows will help you try to hide,
Bitter heart, my bitter heart is just getting a little fragile

                                       C          Am      F#      G#
Bitter heart, bitter heart of mine, of mine, of mine, of mine, of mine,
   C
of mine.

End with this:
e|-------0--0--|
B|------1---1--|
G|-----0----0--|
D|----2-----2--|
A|---3------3--|
E|-------------|

Made it by_ Baldoor!/Agent47/Brandoon!(:
Like  Zee Avi on Last Call w Carson Daly
Comments? email me --- tj.28_crb@hotmail.com
Tap to rate this tab
# A B C D E F G H I J K L M N O P Q R S T U V W X Y Z