Song name
# A B C D E F G H I J K L M N O P Q R S T U V W X Y Z

Zee Avi - The Story tab

Help us improve GuitareTab! Take a short survey!
its not perfect, but its pretty good.

Capo 1
Tuning standard

verse

-x-x-x-x-x-x-x---------x-x-------|     X3
-x-x-5-3-x-x-x-0h1p0-x-----------|x1
-x-0-x-x-0-x-0---------x-0-------|
-x-x-x-x-x-3-x---------x-x-------|
-3-x-3-2-x-x-x---------3-x-------|
-x-x-x-x-x-x-x---------x-x-------|

Chorus/intro

-x-x-x-x-x-x-x-x------0----|   X2
-x-x-x-1-x-x-x-x-0h1--x----|
-x-x-0-x-0-x-x-0------x----|
-x-3-x-x-x-x-3-x------x----|
-0-x-x-x-x-0-x-x------x----|
-x-x-x-x-x-x-x-x------x----|

play "intro" once, chorus twice.


Chords that you hold

 ?       Em7     F       C
-0-   -0-   -0-   -0-|
-5-   -3-   -1-   -1-|
-0-   -0-   -0-   -0-|
-0-   -0-   -3-   -0-|
-3-   -2-   -0-   -3-|
-0-   -0-   -0-   -0-|
Related for The Story tab