Song name
# A B C D E F G H I J K L M N O P Q R S T U V W X Y Z

Zevon Warren - Werewolves Of London tab

Solo to Werewolves of London
Warren Zevon
Excitable Boy



Slide Guitar 1
e|-----------------------------|---------------------------------|---------------------------|
b|-----------------------------|-------------3-------------3--0--|--3---5/7---8---10\--10/12-|
g|-----------------------------|--2/4---2/4-----------2/4--------|---------------------------|
d|--0----2/3--0---4/5------0---|---------------------------------|---------------------------|
a|-----------------------------|---------------------------------|---------------------------|
e|-----------------------------|---------------------------------|---------------------------|

e|-----------15-------------|
b|--------------------------|
g|-----12-------------------|
d|----------------------0---|
a|--------------------------|
e|--------------------------|



e|------------------------------|-------------------------------------15----|-----------15------------|-------------------|
b|------------------------------|-8---10/12-------------12/10---------------|-15/17\15--------15\12---|--12--13--15\12----|
g|------7-----7-7-7-7--x-9\7----|-------------12---12------------12---------|-------------------------|-----------------12|
d|-4\0--------------------------|-------------------------------------------|-------------------------|-------------------|
a|------------------------------|-------------------------------------------|-------------------------|-------------------|
e|------------------------------|-------------------------------------------|-------------------------|-------------------|
Tap to rate this tab
 
# A B C D E F G H I J K L M N O P Q R S T U V W X Y Z