Song name
# A B C D E F G H I J K L M N O P Q R S T U V W X Y Z

Zia - I Need You tab

I Need You 
Zia
Tabbed by: Cheesemaon
Standard Tuning

     G        F#m7    B#m7   Em7       D7      B7      C7
e|-------7-|-------5------3-------2-|-------5-------5-------4-|
B|-----7---|-----5------4-------3---|-----6-------6-------6---|
G|---7-----|---5------4-------0-----|---5-------4-------5-----|
D|-5-------|-4--------------2-------|-0-------5---------------|
A|---------|--------2---------------|-----------------4-------|
E|---------|------------------------|-------------------------|

    Bm7             Am           D7
e|-------4-|---------5h7p5-----------4-|
B|-----4---|-------5-------5-------5---|
G|---3-----|-----5-----------5---4-----|
D|---------|---5---------------5-------|
A|-3-------|-0-------------------------|
E|---------|---------------------------|

************************************

| /   slide up
| \   slide down
| h   hammer-on
| p   pull-off
| ~   vibrato
| +   harmonic
| x   Mute note
| b   Bend
| pb  Pre-bend
| br  Bend release
| pbr Pre-bend release
| brb Bend release bend

************************************
Open to ANY suggestions :)
Tap to rate this tab
# A B C D E F G H I J K L M N O P Q R S T U V W X Y Z