Song name
# A B C D E F G H I J K L M N O P Q R S T U V W X Y Z

Zindoe - Odyssey tab

Help us improve GuitareTab! Take a short survey!
ZINDOE
BY: JUSTIN MUNLEY
"This is my band"
ODYSSEY

E)-------------------------------------------------------------------|
B)-------------------------------------------------------------------|
G)-------------------------------------------------------------------|
D)-------------------------------------------------------------------|
A)-------------------------------------------------------------------|
E)-0-0-0-0-0-0-0-0-11-11-11-0-0-0-10-10-9-9-9-9-9-9------------------|

E)-------------------------------------------------------------------|
B)-------------------------------------------------------------------|
G)-------------------------------------------------------------------|
D)-------------------------------------------------------------------|
A)-------------------------------------------------------------------|
E)-9-0-0-0-9-9-0-8-8-7-7-7-7-7-7-7-7-0-0-0-11-11-11-0----------------|

E)-------------------------------------------------------------------|
B)-------------------------------------------------------------------|
G)-------------------------------------------------------------------|
D)-------------------------------------------------------------------|
A)-------------------------------------------------------------------|
E)-0-0-10-10-9-9-9-9-9-9-9-0-0-0-9-9-0-8-8-7-7-7-7-7-----------------|


E)-------------------------------------------------------------------|
B)-------------------------------------------------------------------|
G)-------------------------------------------------------------------|
D)-------------------------------------------------------------------|
A)-------------------------------------------------------------------|
E)-7-7-7-------------------------------------------------------------|
(repeat this twice)

E)-------------------------------------------------------------------|
B)-------------------------------------------------------------------|
G)-------------------------------------------------------------------|
D)-------------------------------------------------------------------|
A)-------------------------------------------------------------------|
E)-15-15-15-15-15-15-15-15-17-17-17-17-17-17-17-17-------------------|

E)-------------------------------------------------------------------|
B)-------------------------------------------------------------------|
G)-------------------------------------------------------------------|
D)-------------------------------------------------------------------|
A)-------------------------------------------------------------------|
E)-19-19-19-19-19-19-19-19-17-15-13-13-16-13-13-13-------------------|

E)-------------------------------------------------------------------|
B)-------------------------------------------------------------------|
G)-------------------------------------------------------------------|
D)-------------------------------------------------------------------|
A)-------------------------------------------------------------------|
E)-16-14-13-13-16-13-13-13-16-(repeat this part X3)------------------|

E)-------------------------------------------------------------------|
B)-------------------------------------------------------------------|
G)-------------------------------------------------------------------|
D)-------------------------------------------------------------------|
A)-------------------------------------------------------------------|
E)-13-13-13-13-13-13-13-13-16-16-16-16-16-16-16-16-------------------|

E)-------------------------------------------------------------------|
B)-------------------------------------------------------------------|
G)-------------------------------------------------------------------|
D)-------------------------------------------------------------------|
A)----------------------------------10-10----------------------------|
E)-11-11-11-11-11-11-11-11-------------------------------------------|
(repeat this part twice)

MEMBERS OF ZINDOE: JUSTIN MUNLEY-GUITAR
RALPH CURE-DRUMS
Related for Odyssey tab