Song name
# A B C D E F G H I J K L M N O P Q R S T U V W X Y Z

Zoo Kid - Out Getting Ribs tab

-------------------------------------------------------------------------------
                             Out Getting Ribs - Zoo Kid/King Krule
-------------------------------------------------------------------------------
Tabbed by: RikkyC 
Email:

Tuning: Drop D (D A D G B e)  (Just ignore the 0's if you want to play standard)

This is just RikkyC's tab changed to be played in drop D and not drop D open D

Structure:

Main riff (1)   x2
Main riff (2)   x2

Verse riff      x4

Main riff (1)   x2
Main riff (2)   x2
[and underneath]
Background riff x4

Chorus          x4

and it repeats in those pieces

Tab:

Main riff (1) -

e|---------------------------------------|
B|-------7-------------------------------|
G|-----6---6-6h7h6-4---------------------|
D|-------------------7---0-4-----0-4-0---|
A|---------------------------------------|
E|---0-----------------5-----5-4---------|

Main riff (2) -

e|-----------------------------------------|
B|-------7---------------------------------|
G|-----6---6-6h7h6-6h7h6-------------------|
D|-------------------------0-4-----0-4-0---|
A|------------------------------------(0)--|
E|---0-------------------3-----3-2---------|

Verse riff -

e|-------------------------------------|
B|-------------------------------------|
G|-------6-4---------------------------|
D|-----------7-4-------0-4-----0-4-0---|
A|---------------7-5-------------------|
E|---0---------------3-----3-2---------|

Verse background riff -

e|-------7--|
B|--7h10----|
G|----------|
D|----------|
A|----------|
E|----------|

On the record, the riff just plays from a second guitar.
'Benjamindaydreams' on YouTube incorporates it in a way that's more appropriate for a 
single guitar - (Watch this video to understand http://www.youtube.com/watch?v=YgMA1wDWKHQ)

e|------------7------7-------------------|
B|-------7h10---7h10---------------------|
G|---------------------------------------|
D|-----------------------0-4-----0-4-0---|
A|---------------------------------------|
E|---0-----------------5-----5-4---------|

Chorus -

e|-----------------------------------------------------------------|
B|-----------------------------------------------------------------|
G|-----------------------------------------------------------------|
D|---------------4-----4-----4-----4-----4-------4-------4---4-----|
A|-----------------------------------------------------------------|
E|---9-9-2-2-5-5---5-5---5-5---5-5---7-7---7/8-8---8/9-9---2---0---|


This is a really great song and a bit tricky to learn but extremely fun to play when you master it
Tap to rate this tab
# A B C D E F G H I J K L M N O P Q R S T U V W X Y Z