Song name
# A B C D E F G H I J K L M N O P Q R S T U V W X Y Z

Zox - Canon tab

Canon - Kotaro Oshio - Dramatic
Double Dropped D Tuning - DADGBD - Capo Fret 4
BPM = 60
Refer to my profile about requesting tabs

     F#           C#             D#m            A#m
     E  S S E  E  E  E  E  E     E   S  S E  E  E   E  E  E
D||-------5-7-----------7-----|--0--------0------------4-----|
B||-----7-5-7--7--5--------5--|------0h-2----0------------0--|
G||-----7------7--6-----6-----|-----------------2------2-----|
D||------------------7--------|---------------------0--------|
A||---------------0-----------|--2---------------------------|
D||--0------------------------|-----------------4------------|


  B              F#             G#m7           C#7           C#7
  S S S S S S E  E  E  E  E     E    E  Q      Q     Q       H
-----------------------0-----|--0-------5S----12S----9----|--5--------|
--0-------0---------------0--|--0-------------12S----8----|--3--------|
------0-------0--2-----------|--0-------------------------|--4--------|
--------7---7----------4-----|----------2-----------------|-----------|
----5---------------0--------|-------2---------0----------|-----------|
--5--------------0-----------|--2-------------------------|-----------|


  F#          C#7          D#m          A#m             B           F#
  ^                ^
  E  E  Q     Q    Q       E   E  E  E  E   E  E  E     E  E  E  E  Q    E  E
--0-----4S----7----5----|--4------0-----4------2-----|--0----------------7-----|
------------------------|------------0--2---------2--|--------0-----3-------0--|
--2----------------6----|---------------2---2--------|--------0-----2----------|
--4-----4---------------|------0---------------------|-----0-----0--4----------|
-----0--------0---------|--2-------------------------|-------------------------|
--0---------------------|---------------4------------|--5-----------0----------|


  B           C#7             F#          C#7
  E  E  E  E  E   E  E  E     E  E  E  E  E   E  E  E
--5-----9-----7------5-----|--4-----------2------------|
--0--------0------------0--|--3-----------2------2-----|
--0-----------6------6-----|--------------2---------2--|
-----0------------7--------|--4-----0------------5-----|
--------------0------------|-----0-----0--0---0--------|
--5------------------------|--0------------------------|


  D#m         A#              B          F#
  E   E  Q    E   E  E  E     Q    E  E  E  E  E  E
--0------4----7------------|-------------------0-----|
------0--------------------|--0-------------------0--|
---------------------------|--0----0-----2-----------|
--------------4---------0--|--0-------0--4-----4-----|
--2---------------4--7-----|----------------0--------|
--------------4------------|--5----------0-----------|


  B             C#               F#          C#7
                tr
  E  E  E  S  S Q       E  E     E  E  E  E  E   E  E  E
--------0-------0(2)----------|-----------2---------------|
--0-----0--3h-5------------2--|--3--2--3-----2------------|
--0-------------2-------0-----|-----------0---------2--0--|
-----0------------------------|--------4---------2--------|
----------------0-------------|--------------0------------|
--5---------------------------|--0------------------------|


  D#m           A#m              B           F#
  E   E  E   E  E   E  E   E     E  E  E  E  E  E  E  E
---------4------7------7S--9--|--5--4--2--5--4--2--------|
------0---------7---7---------|--0-----0--2--3--2--3--2--|
--L------2p--0--6-------------|--0-----------------4--2--|
--4--------------------4------|--------------------4-----|
--2---------------------------|--------------------------|
----------------4-------------|--5-----------0-----------|


  B           C#m             F#          C#7
  E  E  E  E  E   E  E  E     E  E  E  E  E   E  E  E
-----------0---------2-----|--0-----4-----2------------|
--0-----0--0--2---3--2--2--|--------3--3--2------------|
--0--2--0-----2---4--------|--------2-----2------2--0--|
-----4---------------------|-----4------------2--------|
--------------0------------|--------------0------------|
--5------------------------|--0------------------------|


  D#m           A#m             B           F#
  E   E  E   E  E   E  E  E     E  E  E  E  E  E  E  E
---------0------4------------|--0-----------7-----0-----|
------0--0------3------------|--0-----0-----------0-----|
--L------2p--0--2p--0--------|--0--------6--7--6-----7--|
--4--------------------4--0--|-----0--------------------|
--2--------------------------|--------------------------|
----------------4------------|--5-----------0-----------|


  B            C#7              F#             C#7
  E  E  E  E   E  E   E  E      E   S S E  S S S   S S S S S S S
--9-----5-----11------------|--12\----5-7----5-7---------0-2-4-5-|
--0---------------0--10-----|--10\--7---7--7---5-----0-----------|
--0--------0---9---------0--|--11\------7------6-------6---------|
----------------------7-----|----------------------7-------------|
-----9--7------0------------|------------------0-----------------|
--5-------------------------|---0--------------------------------|


  D#m            F#m                   B             F#
  E   S S E  S S S   S S  S S S S S    E  S S E  S S S  S S S S S S S
--4-----2-4-------------------------|--9----------------------0-------|
------3---3----------0--------------|-----0-------------------------0-|
----------4----0-2-----2p-0-2---0---|---------0-----------------0-----|
-------------4----------------4---7-|-------7----4---4----0---4---7---|
--2---------------------------------|--------------7----7---7---------|
-----------------4------------------|--5-------------0----------------|


  B              C#7                       F#            C#7
  E  S S E  S S  S  S  S S  S  S  S  S     E  S S E  S S S   S S S S S S S
--9------5----0-11-------0-------------|--12----5-7----5-7-------2-4-2-4-5-|
-----0---0----------0------10-------10-|--10--7-5-7--7-5-5---2-3-2-3-2-3-5-|
------------0----9----------9-11-12----|--11--7------7---6---2-4-----------|
-------7--------------11---------------|-----------------------------------|
-----------------0---------------------|-----------------0-----------------|
--5------------------------------------|---0-------------------------------|


  D#m            A#m                   B               F#
  E   S S E  S S S   S S  S S S S S    E  S  S E  S  S S  S S S S S S S
--4-----2-4-------------------0---0-|---------------------------------0-|
------3-2-3----------0----------2---|--0--3p-2-0------------------0-2-0-|
------4--------0-2-----2p-0-2-------|--0--4p-2-0--2p-0-2p-0---0-2-0-2---|
-------------4--------------4-------|-------------4p-0-4p-0-4-0-4-------|
--2---------------------------------|-----------------------5-----------|
-----------------4------------------|--5---------------0----------------|


  B                C#7                    F#            C#7
  E  S  S  E  S  S S   S S S S S S S      E  S S E  S S S   S S S S S S S
-------------------------2-0-----5-7-||---7----5-7----5-7-------2-4-2-4-5-|
--0--3p-2h-3--2p-0-2---3-2-0-5-7-5-7-||---7--7-5-7--7-5-----2-3-2-3-2-3-5-|
--0--4p-2h-4--2p-0-2---4-----6-7-----||*-----7------7---6---2-4-----------|
-------------------------------------||*----------------------------------|
-------------------0---------0-------||-----------------0-----------------|
--5----------------------------------||---0-------------------------------|


  D#m            A#m                   B               F#
  E   S S E  S S S   S S  S S S S S    E  S  S E  S  S S  S S S S S S S
--4-----2-4-------------------0---0-|---------------------------------0-|
------3-2-3----------0----------2---|--0--3p-2-0------------------0-2-0-|
------4--------0-2-----2p-0-2-------|--0--4p-2-0--2p-0-2p-0---0-2-0-2---|
-------------4--------------4-------|-------------4p-0-4p-0-4-0-4-------|
--2---------------------------------|-----------------------5-----------|
-----------------4------------------|--5---------------0----------------|


  B                C#7                    F#         C#
  E  S  S  E  S  S S   S S S S S S S  3x  Q    E  E  E  E  E  E
-------------------------2-0-----5-7--||--7-------4--4--5--4--2--|
--0--3p-2h-3--2p-0-2---3-2-0-5-7-5-7--||--7----------2-----------|
--0--4p-2h-4--2p-0-2---4-----6-7-----*||-------------------------|
-------------------------------------*||-------0-----------------|
-------------------0---------0--------||-------------------------|
--5-----------------------------------||--0----------------------|


  D#m        F#m                                     B           C#
                                                     ^           ^
  Q    E  E  E   E  E  E     Q.     E  Q    E  E     E  E  E  E  E  E  E  E
--0-------0--0---2--0-----|-----------------------|--0-----------------------|
--0----0---------------2--|--0---------3----------|--0-----0-----------2-----|
-------------2------------|--0------0--2----2-----|--0--5-----5--2-----2-----|
--------------------------|------------4-------0--|--------------2--2-----0--|
--------------------------|-----------------------|--------------0-----------|
--------------------------|-----------------------|--5-----------------------|


  F#            C#7                D#m            F#
  E  E  E   E   E   E   E   E      E  E   E   E   E  E   E  E
--------0---L------------------|---------12-------------10-----|
--3--------10--10--12--10------|---------------------8---7-----|
--2--------11--11--12------12--|--11-----11--11--11------7--9--|
--4--4-----------------11------|----------9--------------7-----|
----------------0--------------|------9------------------------|
--0----------------------------|---9----------0---0------------|


  B            F#              B           C#
  ^            ^
  E  E  E  E   E  E   E  E     E  E  E  E  E  E  E  E
--9-----------12------------|--9--7--5-----------5--7--|
--0-----0-----10-----10-----|-----------7--5--7--------|
--0-----0-----11-----11--0--|--0-----------6-----------|
-----0-----0------0---------|--------------------------|
----------------------------|--------------0-----------|
--5------------0------------|--5-----------------------|


  B               C#                  F#         C#7
  E  S  S  E  S S S  S S S S S S S    E  E  Q    E   E  Q
-----------------------2-0-----5-7-|--0-----4----7------5----|
--0--3p-2h-3--2-0-2--3-2-0-5-7-5-5-|-------------------------|
--0--4p-2h-4--2-0-2--4-----6-7---6-|--2-----------------6----|
-----------------------------------|--4--4--L--------7-------|
------------------0--------0-------|-------------0-----------|
--5--------------------------------|--0----------------------|


  D#m         A#m             B           F#
              ^
  E   E  Q    E   E  E  E     E  E  E  E  E  E  E  E
--4------0----4------2-----|--0-----------------------|
--------------2---------2--|--0-----0-----3-----------|
--------------2---2--------|--0--------0--2-----2-----|
------4--------------------|-----0--------4--4-----4--|
--2------------------------|--------------------------|
--------------4------------|--5-----------0-----------|


  Bm          C#             F#sus4          F#
  E  E  E  E  E  E  E  E     E      E  E  E  H
--------0-----------2-----|--0------------------------||
--0--------0--2--------2--|---------------------------||
--0--------------2--------|--0------------0-----------||
--0--0--------------------|------------2-----4--------||
--------------0-----------|---------0--------0--------||
--5-----------------------|--0---------------0--------||


Duration Legend
---------------
W - whole
H - half
Q - quarter
E - 8th
S - 16th
T - 32nd
X - 64th
. - note dotted
|-n-|  - n-tuplets


Tablature Legend
----------------
L - tied note
x - dead note
g - grace note
(n) - ghost note
> - accentuded note
NH - natural harmonic
AH - artificial harmonic
TH - tapped harmonic
SH - semi harmonic
PH - pitch harmonic
h - hammer on
p - pull off
b - bend
br - bendRelease
pb - preBend
pbr - preBendRelease
brb - bendReleaseBend
\n/ - tremolo bar dip
\n - tremolo bar dive
-/n - tremolo bar Release up
/n\ - tremolo bar inverted dip
/n - tremolo bar return
-\n - tremolo bar Release down
S - shift slide
s - legato slide
/ -  slide into from below or out of upwards
\ -  slide into from above or out of downwards
~ - vibrato
W - wide vibrato
tr - trill
TP - tremolo picking
T - tapping
S - slap
P - pop
< - fade in
^ - brush up
v - brush down
Tap to rate this tab
# A B C D E F G H I J K L M N O P Q R S T U V W X Y Z