Song name
# A B C D E F G H I J K L M N O P Q R S T U V W X Y Z

Zz Top - Gimme All Your Lovin tab

-------------------------------------------------------------------------------
Gimme All Your Lovin' - ZZ top
-------------------------------------------------------------------------------

Tabbed by: axe victim

Email: Leave a message on my  ‘Ultimate Guitar’  profile or comment 
here and I’ll get back to you.

Another classic from  Eliminator. I have tabbed the first guitar solo,
I'll do the second one later.


Tuning: EADGBe

| /  slide up
| \  slide down
| h  hammer-on
| p  pull-off
| ~  vibrato or sustain
| +  harmonic
| *  pinch harmonic
| x  Mute note
| b  bend note
| ^  slight bend
| r  relax bend
|(3) optional note
|F/C chord/bass note 



Intro:  drums...

___________________________________________________________________ 
 ( drums... )
e|--------------------------------|--------------------------------|
B|--------------------------------|--------------------------------|
G|--------------------------------|--------------------------------|
D|--------------------------------|---------------------3---5------|
A|--------------------------------|-----------------------------3--|
E|--------------------------------|--------------------------------|


Riff 1:


___C___F/C_________Bb/C_________________C__________________________ 
 ( rhythm guitar... )
e|--------------------------------|--------------------------------|
B|-----6---6---6------------------|--------------------------------|
G|-----5---5---5---3-----------3--|-----5---5-------5--------------|
D|-----------------3-----------3--|-----5---5-------5--------------|
A|(3)----------------------3------|---------3-------3---3---3---3--|
E|--------------------------------|--------------------------------|

 | 1 - & - 2 - & - 3 - & - 4 - & -| 1 - & - 2 - & - 3 - & - 4 - & -|


( second guitar played behind riff one - mute strings )

___C_______________________________________________________________ 
 ( second rhythm guitar... )
e|--------------------------------|--------------------------------|
B|--------------------------------|--------------------------------|
G|-5-----------5------------------|-5-----------5------------------|
D|-5-----------5------------------|-5-----------5------------------|
A|-----3---3-------3---3---3---3--|-----3---3-------3---3---3---3--|
E|--------------------------------|--------------------------------|

 | 1 - & - 2 - & - 3 - & - 4 - & -| 1 - & - 2 - & - 3 - & - 4 - & -|


___C___F/C_________Bb/C_________________C__________________________ 
 ( lead guitar... )
e|--------------------------------|-----------------8-------------8-
B|-11b13~~~~~~~~~~~~~~~~~~~~~~~~~~~~~~~~~~~~~~~~~~~~--11-8------8--|
G|--------------------------------|------------------------10b12---|
D|--------------------------------|--------------------------------|
A|--------------------------------|--------------------------------|
E|--------------------------------|--------------------------------|



Verse:   " I got to... "


___C___F/C_________Bb/C_________________C__________________________ 
 " have a shot                                              of...  
   what you got is oh so sweet.                         You got to...  
   make it hot,                                             like a... "
e|--------------------------------|--------------------------------|
B|-----6---6---6------------------|--------------------------------|
G|-----5---5---5---3-----------3--|-----5---5-------5--------------|
D|-----------------3-----------3--|-----5---5-------5--------------|
A|(3)----------------------3------|---------3-------3---3---3---3--|
E|--------------------------------|--------------------------------|


___C___F/C_________Bb/C_________________C__________________________ 
 " boomerang I need a repeat... "
e|--------------------------------|--------------------------------|
B|-----6---6---6------------------|--------------------------------|
G|-----5---5---5---3-----------3--|-----5---5-------5--------------|
D|-----------------3-----------3--|-----5---5-------5--------------|
A|(3)----------------------3------|---------3-------3-------10\----|
E|--------------------------------|--------------------------------|



Chorus:


___Bb_______________________________F______________________________ 
 " Gimme  all your lovin'           all your hugs and kisses too... "
e|--------------------------------|--------------------------------|
B|--------------------------------|--------------------------------|
G|-3------------------------------|--------------------------------|
D|-3------------------------------|-3------------------------------|
A|-1------------------------------|-3-------------------3---6---3--|
E|--------------------------------|-1---------------5b6------------|


___C___F/C_________Bb/C_________________C__________________________ 

e|--------------------------------|--------------------------------|
B|-----6---6---6------------------|--------------------------------|
G|-----5---5---5---3-----------3--|-----5---5-------5--------------|
D|-----------------3-----------3--|-----5---5-------5--------------|
A|(3)----------------------3------|---------3-------3-------10\----|
E|--------------------------------|--------------------------------|


___Bb_______________________________F______________________________ 
 " Gimme  all your lovin'           don't   let   up  until     we're... "
e|--------------------------------|--------------------------------|
B|--------------------------------|--------------------------------|
G|-3------------------------------|--------------------------------|
D|-3------------------------------|-3------------------------------|
A|-1------------------------------|-3-------------------3---6---3--|
E|--------------------------------|-1---------------5b6------------|


___C___F/C_________Bb/C_________________C__________________________ 
 " through... "
e|--------------------------------|--------------------------------|
B|-----6---6---6------------------|--------------------------------|
G|-----5---5---5---3-----------3--|-----5---5-------5--------------|
D|-----------------3-----------3--|-----5---5-------5--------------|
A|(3)----------------------3------|---------3-------3--------------|
E|--------------------------------|--------------------------------|



Riff 2:


___Bb______________________________________________________________ 

e|--------------------------------|--------------------------------|
B|--------------------------------|--------------------------------|
G|-3---3-------3---3-------3---3--|-----3---3-------3---5----------|
D|-3---3-------3---3-------3---3--|-----3---3-------3---5----------|
A|---------6b7---------6b7--------|-6b7---------6b7---------6b7-3--|
E|--------------------------------|--------------------------------|



Guitar solo: ( rhythm chords in brackets... )


___C_(x35xxx)______________________________________________________ 
 ( lead guitar... )
e|--------------------------------|--------------------------------|
B|-----------------------------4^-|-----4^-------------------------|
G|-----------------3-----5--------|---------5-------5~~~~~~~~~--3~~~
D|--------------------------------|--------------------------------|
A|-3-------3---3------------------|--------------------------------|
E|--------------------------------|--------------------------------|


___C_(x35xxx)______________________________________________________ 
                      ( * pinch harmonics * )
e|--------------------------------|--------------------------------|
B|---------6------*4^------6------|-4^-*4^-------------------------|
G|h5~~~~~~~5-------------------5--|---------3--*5~~~~~~~~~~~\------|
D|-----5~~~-----------------------|--------------------------------|
A|--------------------------------|--------------------------------|
E|--------------------------------|--------------------------------|


___C_(x35xxx)______________________________________________________ 

e|--------------------------------|--------------------------------|
B|/5-----5-----6b7-----4/5--------|-----------------4---4----------|
G|/5-----5-5-------------------5--|-----5---3---------------5------|
D|/5-----5------------------------|-------------5------------------|
A|--------------------------------|--------------------------------|
E|--------------------------------|--------------------------------|


___C_(x35xxx)______________________________________________________ 

e|--------------------------------|-----8---8-------8-------8------|
B|-------------6---5-----------11b13~~~-------11b13-----8----------|
G|-----5---------------5----------|--------------------------------|
D|-----5---5h7---------5----------|--------------------------------|
A|--------------------------------|--------------------------------|
E|--------------------------------|--------------------------------|


___F_(13xxxx)_______________________G_(35xxxx)_____________________ 

e|---------8----------------------|--------------------------------|
B|-11b13-------8--------8---------|--------------------------------|
G|----------------10b12----10^~~~~~r10-p8~~~-----------------------|
D|--------------------------------|-----------------8---8----------|
A|--------------------------------|---------10--10---------10\8-6~~~~
E|--------------------------------|--------------------------------|


___C_(x35xxx)______________________________________________________ 

e|--------------------------------|--------------------------------|
B|--------------------------------|-----------------------------8~~~
G|-------------------5~~~~~-------|---------8---5~~~~~~~~~~~~~~~8~~~
D|-----------------x-------8---5--|-8---5--------------------------|
A|~~~~~~~~------------------------|--------------------------------|
E|---------8----------------------|--------------------------------|


___F_(13xxxx)_______________________G_(35xxxx)_____________________ 

e|-----8-----------11^------------|-----10----------13--13--13--13-|
B|/10------10--------------10--10~~/12------12------12--12--12--12-|
G|/10------10--------------10--10~~/12------12------12--12--12--12-|
D|--------------------------------|--------------------------------|
A|--------------------------------|--------------------------------|
E|--------------------------------|--------------------------------|


___C_(x35xxx)______________________________________________________ 

e|-11-p8-------8-----------8------|--------------------------------|
B|---------8-------11b13~~~-------|-8~~~~~~~-----------------------|
G|-----------------------------10^------8~~~----10--8--------------|
D|--------------------------------|---------10--10--8---10~~~~~~~--|
A|--------------------------------|--------------------------------|
E|--------------------------------|--------------------------------|



Riff 2:


___Bb______________________________________________________________ 

e|--------------------------------|--------------------------------|
B|--------------------------------|--------------------------------|
G|-3---3-------3---3-------3---3--|-----3---3----------------------|
D|-3---3-------3---3-------3---3--|-----3---3-------3---5----------|
A|---------6b7---------6b7--------|-6b7---------6b7---------6b7-3--|
E|--------------------------------|--------------------------------|


Repeat riff 2.

Repeat verse.

Repeat chorus.

Repeat riff 2.

Guitar solo to end...

( I'll tab the second solo later. )



lyrics:

 
I got to have a shot of what you got is oh so sweet.
You got to make it hot, like a boomerang I need a repeat,

Gimme all your lovin', all your hugs and kisses too,
Gimme all your lovin', don't let up until we're through,

You got to whip it up and hit me like a ton of lead,
If I blow my top will you let it go to your head?

Gimme all your lovin', all your hugs and kisses too,
Gimme all your lovin', don't let up until we're through.

You got to move it up and use it like a scrweball would.
You got to pack it up, work it like a new boy should.

Gimme all your lovin', all your hugs and kisses too.
Gimme all your lovin', don't let up until we're through. 
Tap to rate this tab
# A B C D E F G H I J K L M N O P Q R S T U V W X Y Z