Ac Dc - Tnt tab version 3

Tuning - Standart (E A D G B e)

Intro

|---------------------||---------------------||---------------------||-2~~-----------------||-2~~-----------------||-0~~-----------------|
Verse
|---|--------------------------||---|--------------------------||---|--------------------------||---|--------2-------2---------| repeat 11x (If i counted right xD)|-2-|--x-x---0-------0----2----||-0-|--x-x-3-------3---3--0----|
|----------------||----------------||----------------||------2---------||------0---------||---3------------|
Chorus
|----------------||----------------||----------------||---2------------| repeat 4x|---0-----2------||------3--0------|
|----------------||----------------||----------------||------2---------||------0---------||---3------------|
Verse
|-------|--------------------------||-------|--------------------------||-2b----|--------------------------||-------|--------2-------2---------| repeat 9x |-----2-|--x-x---0-------0----2----||-----0-|--x-x-3-------3---3--0----|
|----------------||----------------||----------------||------2---------||------0---------||---3------------|
Chorus
|----------------||----------------||----------------||---2------------| repeat 4x|---0-----2------||------3--0------|
|----------------||----------------||----------------||------2---------||------0---------||---3------------|
Solo
|----------3-2-0-------------------||-----------------3-2-0------------||-2b--2b----------------2-0--------||---------------------------5/0----||----------------------------------||----------------------------------|
|--------------------------------------------||--15b 15p12----12---------------------------||------------14----14--12------14------12----||--------------------------14------14--------||--------------------------------------------||--------------------------------------------|
|------------------12---------------12------------||----------------12-----15^12-12-12----12---15b---||---14b-----14------------------------------------||-------------------------------------------------||-------------------------------------------------||-------------------------------------------------|
|---------12-15-12----12------------------------------------------------||------------------15-----15-12----12-----------------------------------||-------------------------------14----14--12-----14----12b--------------||---------------------------------------------14----14------------------||-----------------------------------------------------------14-12-12-14\||-----------------------------------------------------------------------|
|--17b---17/0---------||---------------------||---------------------||---------------------||---------------------||---------------------|
Breakdown
|----------------||----------------||----------------||---2------------| repeat 8x|---0-----2------||------3--0------|
|----------------||----------------||----------------||------2---------||------0---------||---3------------|
End
Guitar 1|----------------------------||-------------19b-22b-22b----||---7b....22b----------------||----------------------------||----------------------------||----------------------------|Start with the first bending on the 7th fret until you are at fret 22.
Guitar 2|------------------||------------------||------------------||--2.....21--------||--2.....21--------||--0.....19--------|Start with the first shown powerchord and slide one fret up until Fret 19
Tap to rate this tab
 
# A B C D E F G H I J K L M N O P Q R S T U V W X Y Z