Acdc - You Shook Me All Night Long tab

One of my first tabs.

“You Shook Me All Night Long” by AC/DC

Key:
Hammer on - h
Pull off - p
Bend - b
Release - r
Pre-bend - pb
Palm Mute - ^
Slide up - /
Slide down - \
Mute - x
Pinch Harmonic - *
Vibrato - v

[Intro]

  G5                   D5                    G5                   D

|------------------------------------------|----------------------2--||-8--10--8-8---8-7-----3------------3------|-8--10--8-8---8-7-----3--||-7--7---7---7-----7---2--2--2------2------|-7----------7-----7---2--||--------------------0-0--3b-0--3/4-0-3b-0-|--------------------0-0--||------------------------------------------
|-------------------------||------------------------------------------|-------------------------|
[Main Riff/Verse] Brackets are only played once, at start of the verse ONLY G5 C G5 C G5 D5 G5 D5 G5 D5 G5
|------------------------------|------------------------||-(3)---1---1-------1-------3--|-3---3---3---3---3---3--||-(0)---0---0---0---0---0---2--|-0---0---2---0---2---0--||-(0)---2---2---0---2---0---0--|-0---0---0---0---0---0--||-(x)---3---3---x---3---x------|-x---x-------x-------x--||-(3)-----------3-------3------|-3---3-------3-------3--|
-play 5 times- [Pre-Chorus] C G5 C G5 D5 G5 D5 G5 D5
|---------------------------------------3--------3----||---1---1-------1-------3---3--3--3-----3--3--3--3--3-||---0---0---0---0---0---2---2--2--2--0--0--0--2--0--2-||---2---2---0---2---0---0---0--0--0--0--0--0--0--0--0-||---3---3---x---3---x----------------0--x--0-----x----||-----------3-------3-------------------3--------3----|
[Chorus 1] G5 Csus2 G/B D5 Csus2 G/B
|-----------------------------------|----------------3--------3------|-----3---------------3-----3-----3-|-3--------------3--------3------|-0---0------------0--------------2-|-2-----------0-----0--0--0------|-0---0------------------------0--0-|-0-----------------x------------|-x---x---0--2--3--------2----------|----0--2--3--------2------------|-3---3-----------------------------|--------------------------------
G5 Csus2 G/B D5 D Csus2 G/B
---------------------------------------|----------------------------|------3---------------3-----3-----3----|-3--------------3-----3-----|--0---0------------0--------------2--2-|-2-----------0--------0-----|--0---0------------------------0--0----|-0--------------------------|--x---x---0--2--3--------2-------------|-0--0--2--3--------2-----2--|--3---3--------------------------------|----------------------------|
-Play verse 5 times INCLUDING bracketed chord for the first time- -Play Pre-Chorus- [Chorus 2] G5 Csus2 G/B D5 Csus2 G/B
|-----------------------------------|----------------3--------3--------|-----3---------------3-----3-----3-|-3--------------3--------3--------|-0---0------------0--------------2-|-2-----------0-----0--0--0--------|-0---0------------------------0--0-|-0-----------------x--------------|-x---x---0--2--3--------2----------|----0--2--3--------2--------------|-3---3-----------------------------|----------------------------------
G5 Csus2 G/B D5 D Csus2 G/B
------3-----------------------------|-2--------------------------------------3---------------3-----3-----3-|-3--------------3--3--3-------------0---0------------0--------------2-|-2-----------0-----0--0-------------0---0------------------------0--0-|-0-----------------x----------------x---x---0--2--3--------2----------|----0--2--3--------2-----2--0-------3---3-----------------------------|----------------------------------
G5 Csus2 G/B D5 D Csus2 G/B
------3--------------------------------|-2--------------3--------------------3---------------3-----3-----3--3-|-3--------------3-----3--3--3----0---0------------0--------------2--2-|-2-----------0-----0--0--0--0----0---0------------------------0--0--0-|-0-----------------x-------------x---x---0--2--3--------2-------------|----0--2--3--------2-------------3---3--------------------------------|-------------------------------
G5 Csus2 G/B D5
------3---------------3--------------|--3---3---------------3-----3-----3--|--0---0------------0--------------2--|--0---0------------------------0--0--|--x---x---0--2--3--------2-----------|--3---3------------------------------|
D5 G5 D
|-------------------3-|-3--3--3--------------------------------------------||-3--3--3--3--3--3--3-|-3--3--3------3--3--3--3--3--3--3--3--3--3--3--3----||-2--2--2--2--2--2--0-|-0--0--0---0--2--2--2--2--2--2--2--2--2--2--2--2--0-||-0--0--0--0--0--0--0-|-0--0--0---0--0--0--0--0--0--0--0--0--0--0--0--0--0-||-------------------x-|-x--x--x---0--0--0--0--0--0--0--0--0--0--0--0--0--0-||-------------------3-|-3--3--3---0--------------------------------------0-|
[Solo] I've split it into the parts that I learned it in.
|------3------------------------------------------------------|---------3--6------------------------------------------------|--5b-----------5br--3b-------------------------3b*------3b*--|-----------------------5-5---5--3^-----------------5--5------|-------------------------5---------5^-3--1^------------------|--------------------------------------------3^---------------
-----------------------------10--------------------------------6-6-------8-8----8-10b----10br-8--8-11b-10b-8---8\--5/7--7----7/9-------9------------------------------9-------------------------------------------------------------------------------------------------------------------------------------------------------------------------------
--------15-------------------------------------------------------------18b20v----15-18------------17--------18-----18----------17-15----15\------------------17br-15----17-15-17b----17b----17br-15b-17-15-17-15\--------------------------17------------------------------------17-------------------------------------------------------------------------------------------------------------------------------------------------
----18b20-pb18-pbr17p15-17----15-----15---------------------15------------------------17----18b----18------------------------------------------------------------17br-15-17/19\-----------------------------------------------------------------------------------------------------------------------------------------------------------------------------------
-------15----15-15--17br--15v-|-15/17----17------------------|------------------------------|------------------------------|------------------------------|------------------------------|
[Outro Chorus] G5 Csus2 D5 D Csus2
|------3---------------3----------------|-2-----------------------------||--3---3---------------3-----3-----3--3-|-3--------------3--3--3--3--3--||--0---0------------0--------------2--2-|-2-----------0-----0--0--0--0--||--0---0------------------------0--0--0-|-0-----------------x-----x-----||--x---x---0--2--3--------2-------------|----0--2--3--------2-----2-----||--3---3--------------------------------|-------------------------------|
-play 3 times- G5 Csus2 D5 Csus2 D
|-----3---3--------------------------------------------------------------2-|-3---3---3--------------3--3--3--3--3-----3--3--------------3-----3-----3-|-0---0---0-----0--0--0-----0--0--0--2-----2--2-----0--0--0--------0-----2-|-0---0---0-----x--x--------x-----0--0--0--0--0-----x--x-----------------0-|-x---x---x--0--2--3--------2--------------------0--2--3--------2-----0----|-3---3---3----------------------------------------------------------------
Csus2 D D5
-2--2--2--------------------------2---2--2-|-------------------------------3--3--3-----3--3-----3--3--3-----3---3--3-|-3--3--3--3--3--3--3--3--3--3--2--2--2-----0--0--0-----0--0-----2---2--2-|-2--2--2--2--2--2--2--2--2--2--0--0--0-----x--x--------x--x-----0---0--0-|-0--0--0--0--0--0--0--0--0--0-----------0--2--3--------2--2--0-----------|-------------------------------------------------------------------------|------------------------------
-------------------------------------|-3--3--3--3--3--3--3--3--3--3--3--3--|-2--2--2--2--2--2--2--2--2--2--2--2--|-0--0--0--0--0--0--0--0--0--0--0--0--|-------------------------------------|-------------------------------------|
Tap to rate this tab
 
# A B C D E F G H I J K L M N O P Q R S T U V W X Y Z