Adelitas Way - Sick tab version 1

Not 100% accurate, but close.

Intro

|---------------------------------------------------------------||---------------------------------------------------------------||---------------------------------------------------------------||---------------------------------------------------------------||-----0-0-------------------------0-0---------------------------||-----0-0-------------------------0-0---------------------------|
|---------------------------------------------------------------||---------------------------------------------------------------||---------------------------------------------------------------||-12-12/15-15-15/17-17-17/10-10-10------------------------------||-12-12/15-15-15/17-17-17/10-10-10------------------------------||-12-12/15-15-15/17-17-17/10-10-10------------------------------| x3
|---------------------------------------------------------------||---------------------------------------------------------------||---------------------------------------------------------------||-5--------------3h5p3-2----------------------------------------||-5--------------3h5p3-2----------------------------------------||-5--------------3h5p3-2----------------------------------------|
Verse 1
|---------------------------------------------------------------||---------------------------------------------------------------||---------------------------------------------------------------||-0-0---xx-----0-0---xx-----0-0---xx-5p3p0-5p3p0-|3----0-0----xx||-0-0---xx-----0-0---xx-----0-0---xx-5p3p0-5p3p0-|3----0-0----xx||-0-0---xx-----0-0---xx-----0-0---xx-5p3p0-5p3p0-|3----0-0----xx| x2
2nd time ^
|--------||--------||--------||3-x-----||3-x-----||3-x-----|
Chorus
|---------------------------------------------------------------||---------------------------------------------------------------||---------------------------------------------------------------||-00000000-33333333-88888888-55555555---------------------------||-00000000-33333333-88888888-55555555---------------------------||-00000000-33333333-88888888-55555555---------------------------| x2
|---------------------------------------------------------------||---------------------------------------------------------------||---------------------------------------------------------------||-12-12/15-15-15/17-17-17/10-10-10------------------------------||-12-12/15-15-15/17-17-17/10-10-10------------------------------||-12-12/15-15-15/17-17-17/10-10-10------------------------------| x3
|---------------------------------------------------------------||---------------------------------------------------------------||---------------------------------------------------------------||-5--------------3h5p3-2----------------------------------------||-5--------------3h5p3-2----------------------------------------||-5--------------3h5p3-2----------------------------------------|
Verse 2
|---------------------------------------------------------------||---------------------------------------------------------------||---------------------------------------------------------------||-0-0---xx-----0-0---xx-----0-0---xx-5p3p0-5p3p0-|3---0-0----xx-||-0-0---xx-----0-0---xx-----0-0---xx-5p3p0-5p3p0-|3---0-0----xx-||-0-0---xx-----0-0---xx-----0-0---xx-5p3p0-5p3p0-|3---0-0----xx-| x2
2nd time ^
|----------------||----------------||----------------||-5-5-5-5-5-5-5-5||-5-5-5-5-5-5-5-5||-5-5-5-5-5-5-5-5|
Chorus
|---------------------------------------------------------------||---------------------------------------------------------------||---------------------------------------------------------------||-00000000-33333333-88888888-55555555---------------------------||-00000000-33333333-88888888-55555555---------------------------||-00000000-33333333-88888888-55555555---------------------------| x2
Bridge
|---------------------------------------------------------------||---------------------------------------------------------------||---------------------------------------------------------------||-8888888888888888-5555555555555555-----------------------------||-8888888888888888-5555555555555555-----------------------------||-8888888888888888-5555555555555555-----------------------------| x2
|---------------------------------------------------------------||---------------------------------------------------------------||---------------------------------------------------------------||-------------------------------------------------5~------------||-----0-0-------------------------0-0-------------5~------------||-----0-0-------------------------0-0-------------5~------------|
Verse 3
|---------------------------------------------------------------||---------------------------------------------------------------||---------------------------------------------------------------||-00000000-33333333-88888888-55555555---------------------------||-00000000-33333333-88888888-55555555---------------------------||-00000000-33333333-88888888-55555555---------------------------|
|---------------------------------------------------------------||---------------------------------------------------------------||---------------------------------------------------------------||-00000000-33333333-88888888---555-3---555-3--------------------||-00000000-33333333-88888888---555-3---555-3--------------------||-00000000-33333333-88888888---555-3---555-3--------------------|
|---------------------------------------------------------------||---------------------------------------------------------------||---------------------------------------------------------------||-00000000-33333333-88888888-55555555---------------------------||-00000000-33333333-88888888-55555555---------------------------||-00000000-33333333-88888888-55555555---------------------------|
|---------------------------------------------------------------||---------------------------------------------------------------||---------------------------------------------------------------||-00000000-33333333-88888888--555555---555555-------------------||-00000000-33333333-88888888--555555---555555-------------------||-00000000-33333333-88888888--555555---555555-------------------|
Outro
|---------------------------------------------------------------||---------------------------------------------------------------||---------------------------------------------------------------||-12-12/15-15-15/17-17-17/10-10-10------------------------------||-12-12/15-15-15/17-17-17/10-10-10------------------------------||-12-12/15-15-15/17-17-17/10-10-10------------------------------| x3
|---------------------------------------------------------------||---------------------------------------------------------------||---------------------------------------------------------------||-5------5p3-5p3-5p3-3-----0--0---------------------------------||-5------5p3-5p3-5p3-3-----0--0---------------------------------||-5------5p3-5p3-5p3-3-----0--0---------------------------------|
Some parts are a little iffy, but that's pretty much it!
Tap to rate this tab
 
# A B C D E F G H I J K L M N O P Q R S T U V W X Y Z