Adelitas Way - Sick tab

Tuning Drop C

|---------------------------------------------------------------||---------------------------------------------------------------||---------------------------------------------------------------||---------------------------------------------------------------||-0-0----------------------------0-0----------------------------||-0-0----------------------------0-0----------------------------|
|---------------------------------------------------------------||---------------------------------------------------------------||---------------------------------------------------------------||-5/777/101010/121212/555---------------------------------------||-3/555/8-8-8-/101010\333---------------------------------------||---------------------------------------------------------------| x3
|---------------------------------------------------------------||---------------------------------------------------------------||---------------------------------------------------------------||-5~-------------x5h6p5-3---------------------------------------||-5~-------------x5h6p5-3---------------------------------------||-5~-------------x5h6p5-3---------------------------------------|
Verse 1
|---------------------------------------------------------------||---------------------------------------------------------------||---------------------------------------------------------------||-0-0---xx-----0-0---xx-----0-0---xx6p5p0-6p5p3------0-0------xx||-0-0---xx-----0-0---xx-----0-0---xx6p5p0-6p5p3------0-0------xx||-0-0---xx-----0-0---xx-----0-0---xx6p5p0 6p5p3------0-0------xx|
|---------------------------------------------------------------||---------------------------------------------------------------||---------------------------------------------------------------||-0-0---xx-----0-0---xx-----0-0---xx6p5p0-6p5p3-----------------||-0-0---xx-----0-0---xx-----0-0---xx6p5p0-6p5p3-----------------||-0-0---xx-----0-0---xx-----0-0---xx6p5p0 6p5p3-----------------|
Chorus
|---------------------------------------------------------------||---------------------------------------------------------------||---------------------------------------------------------------||-00000000-33333333-88888888-55555555---------------------------||-00000000-33333333-88888888-55555555---------------------------||-00000000-33333333-88888888-55555555---------------------------| x2
|---------------------------------------------------------------||---------------------------------------------------------------||---------------------------------------------------------------||-5/777/101010/121212/555---------------------------------------||-3/555/8-8-8-/101010\333---------------------------------------||---------------------------------------------------------------| x3
|---------------------------------------------------------------||---------------------------------------------------------------||---------------------------------------------------------------||-5~-------------x5h6p5-3---------------------------------------||-5~-------------x5h6p5-3---------------------------------------||-5~-------------x5h6p5-3---------------------------------------|
Verse 2
|---------------------------------------------------------------||---------------------------------------------------------------||---------------------------------------------------------------||-0-0---xx-----0-0---xx-----0-0---xx6p5p0-6p5p3------0-0------xx||-0-0---xx-----0-0---xx-----0-0---xx6p5p0-6p5p3------0-0------xx||-0-0---xx-----0-0---xx-----0-0---xx6p5p0 6p5p3------0-0------xx|
|---------------------------------------------------------------||---------------------------------------------------------------||---------------------------------------------------------------||-0-0---xx-----0-0---xx-----0-0---xx6p5p0-6p5p3-----------------||-0-0---xx-----0-0---xx-----0-0---xx6p5p0-6p5p3-----------------||-0-0---xx-----0-0---xx-----0-0---xx6p5p0 6p5p3-----------------|
|---------------------------------------------------------------||---------------------------------------------------------------||---------------------------------------------------------------||-5-5-5b-5b-5b-5b-5b-5b-----------------------------------------||-5-5-5b-5b-5b-5b-5b-5b-----------------------------------------||-5-5-5b-5b-5b-5b-5b-5b-----------------------------------------| Ascending bend
Chorus
|---------------------------------------------------------------||---------------------------------------------------------------||---------------------------------------------------------------||-00000000-33333333-88888888-55555555---------------------------||-00000000-33333333-88888888-55555555---------------------------||-00000000-33333333-88888888-55555555---------------------------| x2
Bridge
|---------------------------------------------------------------||---------------------------------------------------------------||---------------------------------------------------------------||--7777\5555/7777\5555------------------------------------------||--5555\3333/5555\3333------------------------------------------||---------------------------------------------------------------| x8
|---------------------------------------------------------------||---------------------------------------------------------------||---------------------------------------------------------------||-------------------------------------------------5~------------||-----0-0-------------------------0-0-------------5~------------||-----0-0-------------------------0-0-------------5~------------|
Chorus
|---------------------------------------------------------------||---------------------------------------------------------------||---------------------------------------------------------------||-00000000-33333333-88888888-55555555---------------------------||-00000000-33333333-88888888-55555555---------------------------||-00000000-33333333-88888888-55555555---------------------------|
|---------------------------------------------------------------||---------------------------------------------------------------||---------------------------------------------------------------||-00000000-33333333-88888888---5p3h5p3h5--5p3h5--5p3h5-5--------||-00000000-33333333-88888888---5p3h5p3h5--5p3h5--5p3h5-5--------||-00000000-33333333-88888888---5p3h5p3h5--5p3h5--5p3h5-5--------|
|---------------------------------------------------------------||---------------------------------------------------------------||---------------------------------------------------------------||-00000000-33333333-88888888-55555555---------------------------||-00000000-33333333-88888888-55555555---------------------------||-00000000-33333333-88888888-55555555---------------------------|
|---------------------------------------------------------------||---------------------------------------------------------------||---------------------------------------------------------------||-00000000-33333333-88888888---5p3h5p3h5-5--5p3h5p3h5-5---------||-00000000-33333333-88888888---5p3h5p3h5-5--5p3h5p3h5-5---------||-00000000-33333333-88888888---5p3h5p3h5-5--5p3h5p3h5-5---------|
Outro
|---------------------------------------------------------------||---------------------------------------------------------------||---------------------------------------------------------------||-5/777/101010/121212/555---------------------------------------||-3/555/8-8-8-/101010\333---------------------------------------||---------------------------------------------------------------| x3
|---------------------------------------------------------------||---------------------------------------------------------------||---------------------------------------------------------------||-5~-----------x5h6p5-3--00-------------------------------------||-5~-----------x5h6p5-3--00-------------------------------------||-5~-----------x5h6p5-3--00-------------------------------------|
Tap to rate this tab
 
# A B C D E F G H I J K L M N O P Q R S T U V W X Y Z