Aerosmith - Dream On tab version 3

Chord tabs: A#5 C5 C#5 D#5 F5 G5 G#5 A#5(2) |-----------------------------------------------------||-----------------------------------------------------||-3-----5----6----8-----10---12----13----15-----------||-3-----5----6----8-----10---12----13----15-----------||-1-----3----4----6-----8----10----11----13-----------||-----------------------------------------------------|
Intro and verse:e+-4-----4----|-3-----3----|-4-----4----|-3-----3----|B+-6-----6----|-4-----4----|-3-----3----|-2--1--2--1-|G+----5-----5-|----5-----5-|----5-----5-|------------|D+------------|------------|------------|------------|A+------------|------------|------------|------------|E+------------|------------|------------|------------|
|-4-----4----|-6-----6----|--8-----8----|--8---------||-6-----6----|-8-----8----|--9-----9----|--9---------||----5-----5-|----5-----5-|-------------|--10--------||------------|------------|----10----10-|--10--------||------------|------------|-------------|------------||------------|------------|-------------|------------|
|-4-----4----|-3-----3----|--4-----4----|-3-----3----||-6-----6----|-4-----4----|--3-----3----|-2--1--2--1-||----5-----5-|----5-----5-|-----5-----5-|------------||------------|------------|-------------|------------||------------|------------|-------------|------------||------------|------------|-------------|------------|
|-4-----4----|-6-----6----|--8-----8----|--6---4---6-||-6-----6----|-6-----6----|--6-----6----|--6---6---6-||----5-----5-|----5-----5-|-------------|------------||------------|------------|-------------|------------||------------|------------|-------------|------------||------------|------------|-------------|------------|
|--8-----8----|-8\-6---6-6-|------------|------------||--9-----9----|-8\-6---6-6-|------------|------------||-------------|------------|-6--5--6--5-|-6--5--6--5-||-------------|------------|------------|------------||-------------|------------|------------|------------||-------------|------------|------------|------------|
|-----------------|---------------------|---------------------------||-----------5/6/8-|-6/8/9-8/9/11-9h11p9-|-8h9p8-6h8p6-4h6p4--2-1/13-||-6/5/3-5-6-------|---------------------|---------------------------||-----------------|---------------------|---------------------------||-----------------|---------------------|---------------------------||-----------------|---------------------|---------------------------|
|-4-----4----|-3-----3----|--4-----4----|-3-----3----| X 4|-6-----6----|-4-----4----|--3-----3----|-2--1--2--1-||----5-----5-|----5-----5-|-----5-----5-|------------||------------|------------|-------------|------------||------------|------------|-------------|------------||------------|------------|-------------|------------|Every time I look in the mirror All these lines on my face getting clearer The past is gone It went by like dusk to dawn
|-4-----4----|-3-----3----|-4-----4----|-3-----3----||-6-----6----|-5-----5----|-6-----6----|-6-----6----||----5-----5-|----5-----5-|----5-----5-|----5-----5-||------------|------------|------------|------------||------------|------------|------------|------------||------------|------------|------------|------------|Isn't that the way, everybody's got their dues in life to
|------------|------------||------------|------------| X 2|-6--5--6--5-|-6--5--6--5-||------------|------------||------------|------------||------------|------------|pay
F5 D#5 I know what nobody knows C#5 D#5 Where it comes and where it goes F5 D#5 I know it's everybody's sin C#5 D#5 You got to lose to know how to win
|-4-----4----|-3-----3----|--4-----4----|-3-----3----||-6-----6----|-4-----4----|--3-----3----|-2--1--2--1-||----5-----5-|----5-----5-|-----5-----5-|------------||------------|------------|-------------|------------||------------|------------|-------------|------------||------------|------------|-------------|------------|
|-4-----4----|-6-----6----|--8-----8----|--8---------||-6-----6----|-8-----8----|--9-----9----|--9---------||----5-----5-|----5-----5-|-------------|--10--------||------------|------------|----10----10-|--10--------||------------|------------|-------------|------------||------------|------------|-------------|------------|
|-4-----4----|-3-----3----|--4-----4----|-3-----3----||-6-----6----|-4-----4----|--3-----3----|-2--1--2--1-||----5-----5-|----5-----5-|-----5-----5-|------------||------------|------------|-------------|------------||------------|------------|-------------|------------||------------|------------|-------------|------------|Half my life is in books' written pages Lived and learned from fools and from sages You know it's true
|-4-----4----|-3-----3----|-4-----4----|-3-----3----||-6-----6----|-5-----5----|-6-----6----|-6-----6----||----5-----5-|----5-----5-|----5-----5-|----5-----5-||------------|------------|------------|------------||------------|------------|------------|------------||------------|------------|------------|------------|All the things come back to you
F5 D#5 Sing with me, sing for the year C#5 D#5 Sing for the laughter, sing for the tear F5 D#5 Sing with me, if it's just for today C#5 D#5 Mabye tomorrow the good Lord will take you away
|------------|------------||------------|------------| X 2|-6--5--6--5-|-6--5--6--5-||------------|------------||------------|------------||------------|------------|
|---4-----4-----6-|-----6---------|-8-----8-----8/--|-13--------------||-----6-----6-----|-6-----6-------|---6-----6-------|-----------------||-5-----5-----5---|---5-----5---5-|-----5-----5-----|-----------------||-----------------|---------------|-----------------|-----------------||-----------------|---------------|-----------------|-----------------||-----------------|---------------|-----------------|-----------------|
|-8-----8---------|---8-------8-----|-----------------||-----6-----6-----|-6-----6------6--|-6---8--8b9r8----||-----------------|-----------------|-----------------||-----------------|-----------------|-----------------||-----------------|-----------------|-----------------||-----------------|-----------------|-----------------|
|---4-----4-----6-|-----6---------|-8-----8-----8/--|-13--------------||-----6-----6-----|-6-----6-------|---6-----6-------|-----------------||-5-----5-----5---|---5-----5---5-|-----5-----5-----|-----------------||-----------------|---------------|-----------------|-----------------||-----------------|---------------|-----------------|-----------------||-----------------|---------------|-----------------|-----------------|
|-8-----8---------|---8-------8-----||-----6-----6-----|-6-----6---------||-----------------|-----------------||-----------------|-----------------||-----------------|-----------------||-----------------|-----------------|
F5 D#5 Sing with me, sing for the year C#5 D#5 Sing for the laughter, sing for the tear F5 D#5 Sing with me, if it's just for today C#5 D#5 Mabye tomorrow the good Lord will take you away
|------------|------------||------------|------------| X 2|-6--5--6--5-|-6--5--6--5-||------------|------------||------------|------------||------------|------------|
A#5 C5 C#5 Dream On Dream On Dream On D#5 Dream until your dreams come true
|---12b14-------12b14------|----12b14-------12b14r12-||--------------------------|-------------------------||--------------------------|-------------------------||--------------------------|-------------------------||--------------------------|-------------------------||--------------------------|-------------------------|
|--13-11-------------------|-------------------------||---------13-11------------|-------------------------||----------------13-10/----|-8--8--------------------||--------------------------|------10-8-6-------------||--------------------------|-------------8-6~~~------||--------------------------|-------------------------|
A#5 C5 C#5 Dream On Dream On Dream On D#5 Dream until your dream comes through
|-----------------|-------------------|-----------------|-----------------||-----------------|-------------4-4---|-6--------6-9-9-6|-9--11b12-11b12--||-----------1-1---|-3-1---1-3/5-----5-|----8-8-8--------|-----------------||-3-1---1-3------3|-----3-------------|-----------------|-----------------||-----3-----------|-------------------|-----------------|-----------------||-----------------|-------------------|-----------------|-----------------|
|------------------------------------||-11b12-11b12-11b12-12~~~~-----------||------------------------------------||------------------------------------||------------------------------------||------------------------------------|
A#5 C5 C#5 Dream On Dream On Dream On D#5 F5 Dream On Dream On G5 G#5 A#5(2) Dream On Dream On
|------------|------------||------------|------------| X 2|-6--5--6--5-|-6--5--6--5-||------------|------------||------------|------------||------------|------------|
F5 D#5 Sing with me, sing for the year C#5 D#5 Sing for the laughter, sing for the tear F5 D#5 Sing with me, if it's just for today C#5 D#5 Mabye tomorrow the good Lord will take you away F5 D#5 Sing with me, sing for the year C#5 D#5 Sing for the laughter, sing for the tear F5 D#5 Sing with me, if it's just for today C#5 D#5 Mabye tomorrow the good Lord will take you away
|-3-------3-------|-3-------3-----------|-3-----------3---------||-2---1---2---1---|-2---1---2----1------|-2-----1-----2-----1---||-----------------|---------------------|-----------------------||-----------------|---------------------|-----------------------||-----------------|---------------------|-----------------------||-----------------|---------------------|-----------------------|
Tap to rate this tab
 
# A B C D E F G H I J K L M N O P Q R S T U V W X Y Z