Aerosmith - Dream On tab

dream on
aerosmith

Im about 90 % sure its right the 2nd and 3rd solos might need a little
tweaking but other tahn that its pretty good

1st PART

e+-4-----4----|-3-----3----|-4-----4----|-3-----3----|B+-6-----6----|-4-----4----|-3-----3----|-2--1--2--1-|G+----5-----5-|----5-----5-|----5-----5-|------------|D+------------|------------|------------|------------|A+------------|------------|------------|------------|E+------------|------------|------------|------------|
|-4-----4----|-6-----6----|--8-----8----|--8---------||-6-----6----|-8-----8----|--9-----9----|--9---------||----5-----5-|----5-----5-|-------------|--10--------||------------|------------|----10----10-|--10--------||------------|------------|-------------|------------||------------|------------|-------------|------------|
|-4-----4----|-3-----3----|--4-----4----|-3-----3----||-6-----6----|-4-----4----|--3-----3----|-2--1--2--1-||----5-----5-|----5-----5-|-----5-----5-|------------||------------|------------|-------------|------------||------------|------------|-------------|------------||------------|------------|-------------|------------|
|-4-----4----|-6-----6----|--8-----8----|--6---4---6-||-6-----6----|-6-----6----|--6-----6----|--6---6---6-||----5-----5-|----5-----5-|-------------|------------||------------|------------|-------------|------------||------------|------------|-------------|------------||------------|------------|-------------|------------|
|--8-----8----|-8/-6---6---|------------|------------||--9-----9----|-8/-6---6---|------------|------------||-------------|------------|-6--5--6--5-|-6--5--6--5-||-------------|------------|------------|------------||-------------|------------|------------|------------||-------------|------------|------------|------------|
Solo 1: |-----------------|---------------------|---------------------------||-----------5-6-8-|-6-8-9-8-9-11-9h11p9-|-8h9p8-6h8p6-4h6p4--2-1/13-||-6-5-3h5h6-------|---------------------|---------------------------||-----------------|---------------------|---------------------------||-----------------|---------------------|---------------------------||-----------------|---------------------|---------------------------|
repeat until last time:|-4-----4----|-3-----3----|-4-----4----|-3-----3----||-6-----6----|-4-----4----|-3-----3----|-2--1--2--1-||----5-----5-|----5-----5-|----5-----5-|-----------*||------------|------------|------------|-----------*||------------|------------|------------|------------||------------|------------|------------|------------|
last time play this:|-4-----4----|-3-----3----|-4-----4----|-3-----3----||-6-----6----|-4-----4----|-6-----6----|-6-----6----||----5-----5-|----5-----5-|----5-----5-|----5-----5-||------------|------------|------------|------------||------------|------------|------------|------------||------------|------------|------------|------------|
|------------|------------||------------|------------||-6--5--6--5-|-6--5--6--5-||------------|------------||------------|------------||------------|------------|
|------------|------------||------------|------------||-6--5--6--5-|-6--5--6--5-||------------|------------||------------|------------||------------|------------|
|-------------------------------------||-------------------------------------||----10--8--6--8--10--8--6--8---------||----10--8--6--8--10--8--6--8---------||----8---6--4--6--8---6--4--6---------||-------------------------------------|
|-4-----4----|-3-----3----|-4-----4----|-3-----3----||-6-----6----|-4-----4----|-3-----3----|-2--1--2--1-||----5-----5-|----5-----5-|----5-----5-|------------||------------|------------|------------|------------||------------|------------|------------|------------||------------|------------|------------|------------|
|-4-----4----|-6-----6----|--8-----8----|--8---------||-6-----6----|-8-----8----|--9-----9----|--9---------||----5-----5-|----5-----5-|-------------|--10--------||------------|------------|----10----10-|--10--------||------------|------------|-------------|------------||------------|------------|-------------|------------|
repeat until last time:|-4-----4----|-3-----3----|-4-----4----|-3-----3----||-6-----6----|-4-----4----|-3-----3----|-2--1--2--1-||----5-----5-|----5-----5-|----5-----5-|-----------*||------------|------------|------------|-----------*||------------|------------|------------|------------||------------|------------|------------|------------|
last time play this:|-4-----4----|-3-----3----|-4-----4----|-3-----3----||-6-----6----|-4-----4----|-6-----6----|-6-----6----||----5-----5-|----5-----5-|----5-----5-|----5-----5-||------------|------------|------------|------------||------------|------------|------------|------------||------------|------------|------------|------------|
|-------------------------------------||-------------------------------------||----10--8--6--8--10--8--6--8---------||----10--8--6--8--10--8--6--8---------||----8---6--4--6--8---6--4--6---------||-------------------------------------|
|------------|------------||------------|------------||-6--5--6--5-|-6--5--6--5-||------------|------------||------------|------------||------------|------------|
|------------|------------||------------|------------||-6--5--6--5-|-6--5--6--5-||------------|------------||------------|------------||------------|------------|
Solo 2:|---4-----4-------|-6-----6-------|-8-----8-----8/--|-13--------------||-----6-----6-----|---6-----6-----|---6-----6-------|-----------------||-5-----5-----5-5-|-----5-----5---|-----5-----5-----|-----------------||-----------------|---------------|-----------------|-----------------||-----------------|---------------|-----------------|-----------------||-----------------|---------------|-----------------|-----------------|
|-8-----8---------|---8-------------|--8--------------||-----6-----6-----|-6-----6---6----6|-6-6-8--8b9r8----||-----------------|-----------------|-----------------||-----------------|-----------------|-----------------||-----------------|-----------------|-----------------||-----------------|-----------------|-----------------|
|--4--4-----------6-|-6-------|-8-----8-----8/--|-13--------------||-------6---6---6---|---6---6-|---6-----6-------|-----------------||5--------5---5-----|-----5---|-----5-----5-----|-----------------||-------------------|---------|-----------------|-----------------||-------------------|---------|-----------------|-----------------||-------------------|---------|-----------------|-----------------|
|-8-----8---------|---8-------------||-----6-----6-----|-6-----6----6----||-----------------|-----------------||-----------------|-----------------||-----------------|-----------------||-----------------|-----------------|
|-------------------------------------||-------------------------------------||----10--8--6--8--10--8--6--8---------||----10--8--6--8--10--8--6--8---------||----8---6--4--6--8---6--4--6---------||-------------------------------------|
Solo 3:|----------------------------------|------8------------|-------------------||--------------|-------------------|--------8-13-8-----|-------------------||-------8h9----|8h9p8----8-10-8----|8-10b----------10-8|------8-10b-12-15b-||8/10-8-----10-|------10--------10-|-------------------|11-10--------------||--------------|-------------------|-------------------|-------------------||--------------|-------------------|-------------------|-------------------|
|---------------------||---------------------||-3--3-5--5-6--6-8--8-||-3--3-5--5-6--6-8--8-||-1--1-3--3-4--4-6--6-||---------------------|
Solo 4:|-----------------|-----------------||-16b-----16b-----|-16b-----16b-----||-----------------|-----------------||-----------------|-----------------||-----------------|-----------------||-----------------|-----------------|
|---------------------|--------------||-18-16--13-11--------|--------------||---------------13-10-|-8------------||---------------------|---10-8-6-----||---------------------|----------8-6-||---------------------|--------------|
|---------------------||---------------------||-3--3-5--5-6--6-8--8-||-3--3-5--5-6--6-8--8-||-1--1-3--3-4--4-6--6-||---------------------|
Solo 5: |-----------------|-----------------|-----------------|-------------||-----------------|-----------4-4---|-6--------6-9-9-6|-9--11b-11b--||-----------1-----|-3-1---1-5-----5-|----8-8-8--------|-------------||-3-1---1-3------3|-----3-----------|-----------------|-------------||-----3-----------|-----------------|-----------------|-------------||-----------------|-----------------|-----------------|-------------|
|-------------||-11b-11b-11b-||-------------||-------------||-------------||-------------|
|-----------------------------------------------------||-----------------------------------------------------||-3-----5----6----8-----10---12----13----15-----------||-3-----5----6----8-----10---12----13----15-----------||-1-----3----4----6-----8----10----11----13-----------||-----------------------------------------------------|
|-------------------------------------------------||-14-13-14-13-14-13-14-13-14-13-14-13-14-13-14-13-||-------------------------------------------------||-------------------------------------------------||-------------------------------------------------||-------------------------------------------------|
|-------------------------------------||-------------------------------------||----10--8--6--8--10--8--6--8---------||----10--8--6--8--10--8--6--8---------||----8---6--4--6--8---6--4--6---------||-------------------------------------|
|-------------------------------------||-------------------------------------||----10--8--6--8--10--8--6--8---------||----10--8--6--8--10--8--6--8---------||----8---6--4--6--8---6--4--6---------||-------------------------------------|
|----------------|----------------|----------------||-14--13--14--13-|-14--13--14--13-|-14--13--14--13-|repeat till it fades |----------------|----------------|----------------| away|----------------|----------------|----------------||----------------|----------------|----------------||----------------|----------------|----------------|
about 95% sure this is right dream on aerosmith 2nd PART
e+-4-----4----|-3-----3----|-4-----4----|-3-----3----|B+-6-----6----|-4-----4----|-3-----3----|-2--1--2--1-|G+----5-----5-|----5-----5-|----5-----5-|------------|D+------------|------------|------------|------------|A+------------|------------|------------|------------|E+------------|------------|------------|------------|
|-4-----4----|-6-----6----|--8-----8----|--8---------||-6-----6----|-8-----8----|--9-----9----|--9---------||----5-----5-|----5-----5-|-------------|--10--------||------------|------------|----10----10-|--10--------||------------|------------|-------------|------------||------------|------------|-------------|------------|
|-4-----4----|-3-----3----|--4-----4----|-3-----3----||-6-----6----|-4-----4----|--3-----3----|-2--1--2--1-||----5-----5-|----5-----5-|-----5-----5-|------------||------------|------------|-------------|------------||------------|------------|-------------|------------||------------|------------|-------------|------------|
|-4-----4----|-6-----6----|--8-----8----|--6---4---6-||-6-----6----|-6-----6----|--6-----6----|--6---6---6-||----5-----5-|----5-----5-|-------------|------------||------------|------------|-------------|------------||------------|------------|-------------|------------||------------|------------|-------------|------------|
|--8-----8----|-8\-6---6---|------------|------------||--9-----9----|-8\-6---6---|------------|------------||-------------|------------|-6--5--6--5-|-6--5--6--5-||-------------|------------|------------|------------||-------------|------------|------------|------------||-------------|------------|------------|------------|
Solo 1 (2nd part):|-------------|------------|------------|-8----------||-------------|------------|------------|------------||-6--5--6--5--|-6--5--6--5-|-6--5--6--5-|------------||-------------|------------|------------|------------||-------------|------------|------------|------------||-------------|------------|------------|------------|
repeat until last time:|-4-----4----|-3-----3----|-4-----4----|-3-----3----||-6-----6----|-4-----4----|-3-----3----|-2--1--2--1-||----5-----5-|----5-----5-|----5-----5-|-----------*||------------|------------|------------|-----------*||------------|------------|------------|------------||------------|------------|------------|------------|
last time play this:|-4-----4----|-3-----3----|-4-----4----|-3-----3----||-6-----6----|-4-----4----|-6-----6----|-6-----6----||----5-----5-|----5-----5-|----5-----5-|----5-----5-||------------|------------|------------|------------||------------|------------|------------|------------||------------|------------|------------|------------|
|------------|------------||------------|------------||-6--5--6--5-|-6--5--6--5-||------------|------------||------------|------------||------------|------------|
|------------|------------||------------|------------||-6--5--6--5-|-6--5--6--5-||------------|------------||------------|------------||------------|------------|
|-------------------------------------||-------------------------------------||----10--8--6--8--10--8--6--8---------||----10--8--6--8--10--8--6--8---------||----8---6--4--6--8---6--4--6---------||-------------------------------------|
|-4-----4----|-3-----3----|-4------------------||-6-----6----|-4-----4----|-3------------------||----5-----5-|----5-----5-|----5------------1--||------------|------------|------------------3-||------------|------------|------------1h2h3---||------------|------------|-------1h3h4--------|
|-------4----|-6-----6----|--8-----8----|--8---------||-------6----|-8-----8----|--9-----9----|--9---------||----------5-|----5-----5-|-------------|--10--------||------------|------------|----10----10-|--10--------||------------|------------|-------------|------------||------------|------------|-------------|------------|
repeat until last time:|-4-----4----|-3-----3----|-4-----4----|-3-----3----||-6-----6----|-4-----4----|-3-----3----|-2--1--2--1-||----5-----5-|----5-----5-|----5-----5-|-----------*||------------|------------|------------|-----------*||------------|------------|------------|------------||------------|------------|------------|------------|
last time play this:|-4-----4----|-3-----3----|-4-----4----|-3-----3----||-6-----6----|-4-----4----|-6-----6----|-6-----6----||----5-----5-|----5-----5-|----5-----5-|----5-----5-||------------|------------|------------|------------||------------|------------|------------|------------||------------|------------|------------|------------|
|-----------------||-----------------||----10--8--6--8--||----10--8--6--8--||----8---6--4--6--||-----------------|
|-------------|------------|------------|------------||-------------|------------|------------|------------||-5-----------|-5----------|-5----------|-5----------||---3-3-3-3---|---5-5-5-5--|---6-6-6-6--|---8-8-8-8--||-------------|------------|------------|------------||-------------|------------|------------|------------|
|------------|------------||------------|------------||-6--5--6--5-|-6--5--6--5-||------------|------------||------------|------------||------------|------------|
|------------|------------||------------|------------||-6--5--6--5-|-6--5--6--5-||------------|------------||------------|------------||------------|------------|
Solo 2 (2nd part) \/ very very very softly|-(4)-----------|-(6)----------|-(8)----------|-(13)---------||-(6)-----------|-(6)----------|-(6)----------|--------------||-(5)-----------|-(5)----------|-(5)----------|--------------||---------------|--------------|--------------|--------------||---------------|--------------|--------------|--------------||---------------|--------------|--------------|--------------|
\/ let ring|-(8)-----------|------------|------------|------------||-(6)-----------|------------|------------|------------||---------------|------------|------------|------------||---------------|------------|------------|------------||---------------|------------|------------|------------||---------------|------------|------------|------------|
\/ very very very softly|-(4)-----------|-(6)----------|-(8)----------|-(13)---------||-(6)-----------|-(6)----------|-(6)----------|--------------||-(5)-----------|-(5)----------|-(5)----------|--------------||---------------|--------------|--------------|--------------||---------------|--------------|--------------|--------------||---------------|--------------|--------------|--------------|
\/ let ring|-(8)-----------|------------|------------|------------||-(6)-----------|------------|------------|------------||---------------|------------|------------|------------||---------------|------------|------------|------------||---------------|------------|------------|------------||---------------|------------|------------|------------|
|-------------||-------------||-10--8--6--8-||-10--8--6--8-||-8---6--4--6-||-------------|
|-------------|------------|------------|------------||-------------|------------|------------|------------||-5-----------|-5----------|-5----------|-5----------||---3-3-3-3---|---5-5-5-5--|---6-6-6-6--|---8-8-8-8--||-------------|------------|------------|------------||-------------|------------|------------|------------|
Solo 3 (2nd part)|------------|------------||------------|------------||-6--5--6--5-|-6--5--6--5-||------------|------------||------------|------------||------------|------------|
|------------|------------||------------|------------||-6--5--6--5-|-6--5--6--5-||------------|------------||------------|------------||------------|------------|
|---------------------||---------------------||-3--3-5--5-6--6-8--8-||-3--3-5--5-6--6-8--8-||-1--1-3--3-4--4-6--6-||---------------------|
Solo 4 (2nd part) \/ almost invisible very very very very very very very soft|-------------------------------------||-------------------------------------||-(3)--(3)-(5)--(5)-(6)--(6)-(8)--(8)-||-(3)--(3)-(5)--(5)-(6)--(6)-(8)--(8)-||-(1)--(1)-(3)--(3)-(4)--(4)-(6)--(6)-||-------------------------------------|
\/ back to normal|---------------------||---------------------||-3--3-5--5-6--6-8--8-||-3--3-5--5-6--6-8--8-||-1--1-3--3-4--4-6--6-||---------------------|
Solo 5 (2nd part) \/ almost invisible very very very very very very very soft|-------------------------------------||-------------------------------------||-(3)--(3)-(5)--(5)-(6)--(6)-(8)--(8)-||-(3)--(3)-(5)--(5)-(6)--(6)-(8)--(8)-||-(1)--(1)-(3)--(3)-(4)--(4)-(6)--(6)-||-------------------------------------|
|-----------------------------------------------------||-----------------------------------------------------||-3-----5----6----8-----10---12----13----15-----------||-3-----5----6----8-----10---12----13----15-----------||-1-----3----4----6-----8----10----11----13-----------||-----------------------------------------------------|
|----------------|----------------|----------------|----------------||----------------|----------------|----------------|----------------||----------------|----------------|----------------|----------------||-11--10--11--10-|-11--10--11--10-|-11--10--11--10-|-11--10--11--10-||----------------|----------------|----------------|----------------||----------------|----------------|----------------|----------------|
|-------------------------------------||-------------------------------------||----10--8--6--8--10--8--6--8---------||----10--8--6--8--10--8--6--8---------||----8---6--4--6--8---6--4--6---------||-------------------------------------|
|-------------||-------------||-10--8--6--8-||-10--8--6--8-||-8---6--4--6-||-------------|
|-------------|------------|------------|------------||-------------|------------|------------|------------||-5-----------|-5----------|-5----------|-5----------||---3-3-3-3---|---5-5-5-5--|---6-6-6-6--|---8-8-8-8--||-------------|------------|------------|------------||-------------|------------|------------|------------|
|-3-----3----|-3-----3----|-3-----3----|-3-----3----||-2--1--2--1-|-2--1--2--1-|-2--1--2--1-|-2--1--2--1-|repeat till it fades |------------|------------|------------|------------| away|------------|------------|------------|------------||------------|------------|------------|------------||------------|------------|------------|------------|
please rate this tab only my second one
Tap to rate this tab
 
# A B C D E F G H I J K L M N O P Q R S T U V W X Y Z