Aeternus - Warrior Of The Crescent Moon tab

Aeternus-warrior of the crescent moon
Album-and so the night became
Transcribed by: Montxo

Here is the acoustic intro of the song. Itīs played with classical guitars.
I don't know if there are 2 lead guitars or 1 but I have arragned it for one lead guitar.
For any correction email me at montxo666@hotmail.com


Standard tunnig (EADGBE)


Gtr 1|--------------------------------------------------||--------------0--------0--------0--------0--------||*-------0--------0--------0--------0--------0-----||*----4-----4--------4--------4--------4--------4--||--2-----------------------------------------------||--------------------------------------------------|
|--------------------------------------------------||--------------0--------0--------0--------0--------||--------0--------0--------0--------0--------0-----||-----4-----4--------4--------4--------4--------4--||--2-----------------------------------------------||--------------------------------------------------|
|--------------------------------------------------||--------------0--------0--------0--------0--------||--------2--------2--------2--------2--------2-----||-----2-----2--------2--------2--------2--------2--||--0-----------------------------------------------||--------------------------------------------------|
|--------------------------------------0-----------||--------------------------0--------0--------------||-----------------0-----0--------0----------------*||--------2-----2-----2--------2-------------------*||-----2-----2--------------------------------------||--0-----------------------------------------------|
lead gtr
|--2--------0--2--3--0--0p2--2----5--5--5--3--2---||--3-----3--2--3--5--2--2/3--3----7--7--7--5--3---||--------4----------------------------------------||-------------------------------------------------||-------------------------------------------------||-------------------------------------------------|
|----------------------0--2-/3--2--0--------------||--3/5--5--5-----2--3--2--3-/5--3--2--3--2--3--0--||--4/6--6--6-----2--4-----------------4--2--4--4--||-------------------------------------------------||-------------------------------------------------||-------------------------------------------------|
|--2-----7--7--7--7\5--5--3--0--2----7--7--7--7\5--5--3-----||--3-----7--7--7--7\5--5--5--2--3----7--7--7--7\5--5--5--3--||--------------------------------------------------------4--||-----------------------------------------------------------||-----------------------------------------------------------||-----------------------------------------------------------|
|--------------------------------------------------------------------------||--3/5--5--5-----5--5--7--8--8/10--8--7--7--8--7h8p7-5-7--5--3--3h5--3--2--||--4/6--6--6-----6--6--7--9--9/11--9--7--7--9--7h9p7-6-7--6--4--4h6--4--2--||--------------------------------------------------------------------------||--------------------------------------------------------------------------||--------------------------------------------------------------------------|
|--------------------------------2-3-5--2--3--0--2--0------------------tr----||--0-----------------------2-3-5-----------------------3--5--3--2--3--2h3p2--||--4-----------------0-2-4---------------------------------------------------||--------------0-2-4---------------------------------------------------------||--------0-2-4---------------------------------------------------------------||--0-2-3---------------------------------------------------------------------|
|-------------trem.-------|----------------5-----------------------------------||-------------3-3-3--5--7-|-7/8--7--5--2---7--7--3--5--7--8--7--5--------------||--2--2/4-----4-4-4--6--7-|-7/9--7--6-­-2------7--4--6--7--9--7--6--7--7--------||-------------------------|----------------------------------------9--9--9--9--||-------------------------|----------------------------------------------------||-------------------------|----------------------------------------------7--7--|
|--7-9-10-9-7------7-9-10-9-7-----5--------2h3p2--------------------||-------------7---------------7h8---5/7----------------2-3/5-5/7-5--||------------------------------------------------4-2-4--------------||-------------------------------------------------------------------||-------------------------------------------------------------------||-------------------------------------------------------------------|
|------------------------------------------------------------||--3p2----2h3p2----------------------------------------------||---------------4-2-2/4-2------------------------------------||-------------------------4-2----2h4p2-----------------------||--------------------------------------5\4-2-2-0-2-----------||------------------------------------------------------------|
end
|--------------------------------------0----||--------------------------0--------0-------||-----------------0-----0--------0----------||--------2-----2-----2--------2-------------||-----2-----2-------------------------------||--0----------------------------------------|
gtr1|--------------------------------------0----|||--------------------------0--------0-------|||-----------------0-----0--------0----------|||--------2-----2-----2--------2-------------|||-----2-----2-------------------------------|||--0----------------------------------------||
|
| lead guitar nh|--------------------------------------12---|||--------------------------------------12---|||--------------------------------------12---|||-------------------------------------------|||-------------------------------------------|||-------------------------------------------||
Tap to rate this tab
 
# A B C D E F G H I J K L M N O P Q R S T U V W X Y Z