Afi - Endlessly She Said tab version 1

TAbbed by: Sam Flores
Tuning: Half-step down

 Enjoy! :)

Intro|----2-------0--------2-----2-------0---------------------------||------3---2---2-2-3h---3-----3-------3---2---------------------||-4------4----------------4-------2-----2-----------------------||---------------------------------------------------------------||----------------------------------------------9h10--9-9h10-9---||----------------------------------------------7-----7-7----7---|
|----2------0-------2---3----------0--------------------------------||------3--2--2-2-3h---3----3---------3----2-------------------------||-4-----4---------------------4---2-----2---------------------------||-------------------------------------------------------------------||--------------------------------------------------9h10--9-9h10-9---||--------------------------------------------------7-----7-7----7---|
Verse 1 (listen for timing)
|-2------------0--------------------------||-3----------3---2------------------------||-4--------2------------------------------||-----------------------------------------||------------------------9h10--9-9h10-9---||------------------------7-----7-7----7---|
Put on distortion
|---------------------------------------------------------------------||---------------------------------------------------------------------||----------7776-6-6--------9997-7-7--------7776-6-6-------------------||---7-7/9-------------7/9-------------7/5-----------------------------||---7-7/9-------------7/9-------------7/5------------9h10-9-9h10-9----||---5-5/7-------------5/7-------------5/7------------7----7-7----7----|
|-----------------------------------------------------------------------||-----------------------------------------------------------------------||--------7776-6-6------9997-7-7--------11-11-11-9-9-9-------------------||-7-7/9------------7/9-------------7/5----------------------------------||-7-7/9------------7/9-------------7/5-------------------9h10--9-9h10-9-||-5-5/7------------5/7-------------5/7-------------------7-----7-7----7-|
Chorus|----------------------------------------------||----------------------------------------------||----------------9-------11--------6-----------||-7-5----9-------x-------x---7-7-9-x-----7-5---||-7-5----9-------7-slide-9---7-7-7-7-----7-5---||-5-3----7-------------------5-5-5-5-----5-3---|
|-----------------------------------------------||-----------------------------------------------||-----------9-------11---12-----6-6-6-----------||----9------x-------x----x------x-9-7------7-5--||----9------7-slide-9----10-----7-7-7------7-5--||----7--------------------------5-5-5------5-3--|
Verse 2
|-------------<7>---------<12>------------------||----------<7>---------<7>----------------------||------<7>----------<7>-------------------------||--9--------------------------------------------||--9---------------------------9h10--9-9h10--9--||--7---------------------------7-----7-7-----7--|
(repeat verse and chorus)
|----------10--------------------||--7h8-------8-------------------||------9-9----9------------------||----------------7-7-7-7-7-7-7-7-||----------------7-7-7-7-7-7-7-7-||----------------9-9-9-9-9-9-9-9-|
then:|-----------------||-----------------||------7----------||--5---7---7------||--5---5---7------||--3-------5------|
Solo
|---------10--------------------------||--7h8------8-------------------------||------9-9---9--------6-6-6-----6h7-7-||---------------------------7-7-------||-------------------------------------||---------------7-7-7-----------------|
|----------10--------------------------------||--7h8-------8-------------------------------||------9-9----9--------------------<7><7><5>-||----------------------------<7><7>----------||---------------------7h9-9------------------||---------------5h7-7------------------------|
|----------------<12>----------------------------------------------||--7h8--------<7>---------3-3--------------------------------------||------9-9-<5>--------4-4------7--11-----12------------11----------||---------------------4-4------7--x-slide-x-slide back-x---5---7-9-||---------------------2-2------5--9------10------------9---5---7-9-||----------------------------------------------------------3---5-7-|
|------------------------------------------||------------------------------------------||------------------------------------------||------------------------------------------||----9h10--9-9h10--9--7--------------------||----7-----7-7-----7--5--------------------|
Interlude (turn distortion off)
|--------------------------------------------||---3----3---------------------------------2-||--------0-----------------------2----4--2-2-||----4-----4---2h4-4-4-4-5-4-2-2---2-2--2--2-||-2----2----2--------------------------------||--------------------------------------------|
Chorus 2
|----------------------------------------------||----------------------------------------------||----------------9-------11--------6-----------||-7-5----9-------x-------x---7-7-9-x-----7-5---||-7-5----9-------7-slide-9---7-7-7-7-----7-5---||-5-3----7-------------------5-5-5-5-----5-3---|
|-----------------------------------------------||-----------------------------------------------||-----------9-------11---12-----6-6-6-----------||----9------x-------x----x------x-9-7------7-5--||----9------7-slide-9----10-----7-7-7------7-5--||----7--------------------------5-5-5------5-3--|
|-------------------------------------------------||-------------------------------------------------||----------------9-------11-14--------6-----------||-7-5----9-------x-------x--x---7-7-9-x-----7-5---||-7-5----9-------7-slide-9--12--7-7-7-7-----7-5---||-5-3----7----------------------5-5-5-5-----5-3---|
Then:
|------------------------------------||------------------------------------||---4--6-7---7--9-6-6-6--11-11-------||---x--x-x---x--x-x-x-x--x--x--------||---2--4-5---5--7-4-4-4--9--9--------||------------------------------------|
Outro (while Davey is screaming)|-----------------------------------------------||-----------------------------------------------||-----------------------------------------------||-----------------------------------------------||--9h10-9-9-----7h9-7-7-----5h7-5-5-----7h9-7-7-||--7----7-7-----5---5-5-----3---3-3-----5---5-5-|
|--------------------------------------------------||--------------------------------------------------||-----3-3----6-6-----------------------------------||--4-4----4-4--------------------------------------||--------------------------------------------------||-----------------7--7/9/10---5--2/7--7/9/10--5--2-|
Key: h= hammer on p= pulloff send questions to diacrusis@hotmail.com :).
Tap to rate this tab
 
# A B C D E F G H I J K L M N O P Q R S T U V W X Y Z