Against All Authority - Centerfold tab

CENTERFOLD
Against All Authority


|------4------||------4------||------5------||------6------||------6------||------4------| Intro
|--x-4-x-4-x-4-x-4-x-2-x-2-x-4-x-4--||--x-4-x-4-x-4-x-4-x-2-x-2-x-4-x-4--||--x-5-x-5-x-5-x-5-x-3-x-3-x-5-x-5--||--x-6-x-6-x-6-x-6-x-4-x-4-x-6-x-6--||--x-6-x-6-x-6-x-6-x-4-x-4-x-6-x-6--||--x-4-x-4-x-4-x-4-x-2-x-2-x-4-x-4--| Verse x6 on the upbeat
|------------------------------------||------------------------------------||------------------6-6-6-6--8-8-8-8--||--6--6-6-6-6-6-6--6-6-6-6--8-8-8-8--||--6--6-6-6-6-6-6--4-4-4-4--6-6-6-6--||--4--4-4-4-4-4-4--------------------| Pre-chorus x2
|--------------------------------||--------------------------------||---------6--6-6---------6--6-6--||--6-6-6--6--6-6--4-4-4--6--6-6--||--6-6-6--4--4-4--4-4-4--4--4-4--||--4-4-4----------2-2-2----------| Chorus x4
|--x-4-x-4-x-4-x-4-x-2-x-2-x-4-x-4--||--x-4-x-4-x-4-x-4-x-2-x-2-x-4-x-4--||--x-5-x-5-x-5-x-5-x-3-x-3-x-5-x-5--||--x-6-x-6-x-6-x-6-x-4-x-4-x-6-x-6--||--x-6-x-6-x-6-x-6-x-4-x-4-x-6-x-6--||--x-4-x-4-x-4-x-4-x-2-x-2-x-4-x-4--| Verse x4
|------------------------------------||------------------------------------||------------------6-6-6-6--8-8-8-8--||--6--6-6-6-6-6-6--6-6-6-6--8-8-8-8--||--6--6-6-6-6-6-6--4-4-4-4--6-6-6-6--||--4--4-4-4-4-4-4--------------------| Pre-chorus x2
|--------------------------------||--------------------------------||---------6--6-6---------6--6-6--||--6-6-6--6--6-6--4-4-4--6--6-6--||--6-6-6--4--4-4--4-4-4--4--4-4--||--4-4-4----------2-2-2----------| Chorus x4
|--------------------------------||--------------------------------||---------6--6-6---------6--6-6--||--6-6-6--6--6-6--4-4-4--6--6-6--||--6-6-6--4--4-4--4-4-4--4--4-4--||--4-4-4----------2-2-2----------| Post-chorus x4
|--x-4-x-4-x-4-x-4-x-2-x-2-x-4-x-4--||--x-4-x-4-x-4-x-4-x-2-x-2-x-4-x-4--||--x-5-x-5-x-5-x-5-x-3-x-3-x-5-x-5--||--x-6-x-6-x-6-x-6-x-4-x-4-x-6-x-6--||--x-6-x-6-x-6-x-6-x-4-x-4-x-6-x-6--||--x-4-x-4-x-4-x-4-x-2-x-2-x-4-x-4--| Verse x4
|------------------------------------||------------------------------------||------------------6-6-6-6--8-8-8-8--||--6--6-6-6-6-6-6--6-6-6-6--8-8-8-8--||--6--6-6-6-6-6-6--4-4-4-4--6-6-6-6--||--4--4-4-4-4-4-4--------------------| Pre-chorus x2
|--------------------------------||--------------------------------||---------6--6-6---------6--6-6--||--6-6-6--6--6-6--4-4-4--6--6-6--||--6-6-6--4--4-4--4-4-4--4--4-4--||--4-4-4----------2-2-2----------| Chorus x4
|--------------------------------||--------------------------------||---------6--6-6---------6--6-6--||--6-6-6--6--6-6--4-4-4--6--6-6--||--6-6-6--4--4-4--4-4-4--4--4-4--||--4-4-4----------2-2-2----------| Post-chorus x5
|------------------||------------------||-----------6------||--6----6---6-6-6--||--6----6---4-6-6--||--4----4-----4-4--| Outro
Tap to rate this tab
 
# A B C D E F G H I J K L M N O P Q R S T U V W X Y Z