Agalloch - Our Fortress Is Burning Ii - Bloodbirds tab

Here it goes (aprox)  standart E A D G B E

|--------------------------------------------------------||----16----15-15---15--13-13--13---11-11-/11-10----------||-12----12-------12--12-----12--12--------------10-10-/12| x5|--------------------------------------------------------||--------------------------------------------------------||--------------------------------------------------------|
(trem) A B|------------------------------------------|--------------------------------||------------------------------------------|--------------------------------||-12------15------14------17---15---14---12|-12------15------14------17---19||------------------------------------------|--------------------------------||------------------------------------------|--------------------------------||------------------------------------------|--------------------------------|then A, then B again
|----13--------------------------------------------------||-15---15-15-15b--13-16-13-13-13b-13-15-13-11-11-/11-10-8||--------------------------------------------------------||--------------------------------------------------------| x4|--------------------------------------------------------||--------------------------------------------------------|
(trem)|-----------------------------||-----------------------------||-7------2------5------3------| x4|-----------------------------||-----------------------------||-----------------------------|
C|-13---15----17----13-15-17----15----13----13-15-18----17----15----||---15----15----15----------15----15----15----------15----15----15-||------------------------------------------------------------------||------------------------------------------------------------------||------------------------------------------------------------------||------------------------------------------------------------------|
-13-15-15----13----------------|----------15----13-15-11-13-10-|-------------------------------| x4-------------------------------|-------------------------------|-------------------------------|
(trem)|----------------------------------------------------------------||---------------------------------------------------16-----------||-15------14------17-------15------19-------17--------------19---||----------------------------------------------------------------||----------------------------------------------------------------||----------------------------------------------------------------|
-----------------------------------------------------------------|-----------------------------------------------------------------|-17---15---12------15------14---17---15---14---12-------15---14--|-----------------------------------------------------------------|-----------------------------------------------------------------|-----------------------------------------------------------------|
--------------------------|--------------------------|-17---15---17---19--------|--------------------------|--------------------------|--------------------------|
then C x2 D|-------------------------------------------------------------------------||----------------------------13-13----13-13----13-13-15-15-13-15-15-13-15-||-14-15-15-14-15-15-14-15-15-------15-------15----------------------------||-------------------------------------------------------------------------||-------------------------------------------------------------------------||-------------------------------------------------------------------------|
-------------------------|-16-13-15----13----------|----------15----14-15-14-| x2-------------------------|-------------------------|-------------------------|
then C x2 then D x2 hold on last note to:
|---------------------------------------------||---------------------------------------------||-7----10--8--7----12--10--7----10--8--5------| x4|---------------------------------------------||---------------------------------------------||---------------------------------------------|
ends at:
|-----||-----||--7--||-----||-----||-----|
Tap to rate this tab
 
# A B C D E F G H I J K L M N O P Q R S T U V W X Y Z