Cueca (Danza de Chile)
Agustin Barrios Mangore

Tuning        : E A D G B E
Time signature: 3/4
Key signature : C-major


1 | | | |-------------------------15-----------------------||--------------------------------------------------||---------0---0---0-----------------------0--------||---------14------14-------------------------------||-15------------------------------12---------------||--------------------------------------------------|
2 | | | |-------------------------15-----------------------||--------------------------------------------------||---------0---0---0---------------0----------------||---------15------15----------------------0--------||-14-----------------------------------------------||--------------------------------------------------|
3 | | | |-------------------------15-----------------------||--------------------------------------------------||---------0---0---0-----------------------0--------||---------14------14-------------------------------||-15------------------------------12---------------||--------------------------------------------------|
4 | | | |-------------------------15-----------------------||--------------------------------------------------||---------0---0---0---------------0----------------||---------15------15-------------------------------||-14-----------------------------------------------||--------------------------------------------------|
5 | | | |---------8-------7-------8------------------------||---------6-------6-------6------------------------||--------------------------------------------------||<7>-----------------------------<7>---------------||--------------------------------------------------||--------------------------------------------------|
6 | | | |---------8-------7-------8------------------------||---------6-------6-------6------------------------||<12>----------------------------<12>--------------||--------------------------------------------------||--------------------------------------------------||--------------------------------------------------|
CV--------------------------------------7 | | | |---------7-------5-------7---------------5--------||---------7-------7-------7---------------7--------||---------5-------5-------5---------------5--------||<12>-----------------------------0----------------||--------------------------------------------------||--------------------------------------------------|
8 | | | |-----------------7--------------------------------||-----------------6---------------8----------------||<7>-----------------------------------------------||--------------------------------------------------||--------------------------------------------------||--------------------------------------------------|
9 | | | |10s13----13------12------13--------------12-------|| 8s10----10------9-------10-----------------------||-----------------------------------------12-------||--------------------------------------------------||--------------------------------------------------||--------------------------------------------------|
CVIII------------------------- CV--------------10 | | |---------10--------------8---------------7--------||--------------------------------------------------||---------10--------------8---------------7--------||---------------------------------5----------------||-8---------------9--------------------------------||--------------------------------------------------|
CVIII---------------------------11| | | |---------5----------------------------------------||-------------------------8------------------------||---------5---------------10-----------------------||-7---------------8---------------9----------------||--------------------------------------------------||--------------------------------------------------|
CIII--------------------------------------------12| | | ||--------3-------3-------3---------------3--------||*--------5-------3-------5---------------3--------|||5-------------------------------5----------------|||5-------------------------------5----------------||*3-------------------------------3----------------|||-------------------------------------------------|
13| | | |---------3-------1-------3---------------3--------||---------6-------3h--5---6---------------3--------||-4)------------------------------4)---------------||-3(------------------------------3(---------------||-5)------------------------------5)---------------||-3(------------------------------3(---------------|
14| | | |---------3-------3-------3---------------3--------||---------5-------3-------5---------------3--------||-5)------------------------------5)---------------||-5(------------------------------5(---------------||-3)------------------------------3)---------------||--------------------------------------------------|
15| | | |---------3-------1-------3---------------3--------||---------6-------3h--5---6---------------3--------||-4)------------------------------4)---------------||-3(------------------------------3(---------------||-5)------------------------------5)---------------||-3(------------------------------3(---------------|
16| | | |---------3-------3-------3---------------3--------||---------5-------3-------5---------------3--------||-5(-----------------------------------------------||-5)-----------------------------------------------||-3(------------------------------3----------------||--------------------------------------------------|
17| | | |---------3-------2-------3---------------3--------||---------3-------3-------3---------------3--------||---------0-------0-------0---------------0--------||--------------------------------------------------||-2-------------------------------2----------------||--------------------------------------------------|
CV-----------------------------18| | | |---------8-------7-------8---------------5-------|||---------7-------7-------7---------------7-------|||---------5-------5-------5---------------5-------|||-0-----------------------------------------------|||-0-------------------------------0---------------|||-------------------------------------------------||
>1..............................................19| | | |---------3---------------3---------------3-------|||-------------------------1---------------3-------*||---------0---------------------------------------|||-------------------------------------------------|||-----------------0---------------2---------------*||-3-----------------------------------------------||
>2..............................................20| | | |---------3---------------3-------3----------------||-------------------------1-------3----------------||---------0-----------------------0----------------||--------------------------------------------------||-----------------0---------------2----------------||-3------------------------------------------------|
21| | | ||------------------------0-------12---------------||*------------------------1-------13---------------|||--------0---0---0--------------------------------|||-------------------------------------------------||*3------------------------------------------------|||-------------------------------------------------|
22| | | |-10------10------8-------10--------------7--------||-12------12------10------12--------------8--------||-10------------------------------0----------------||--------------------------------------------------||--------------------------------------------------||--------------------------------------------------|
CVIII23| | | |-8---------------8---------------7---------------|||-10--------------8---------------6---------------|||-------------------------------------------------|||---------------------------------0---------------|||-8---------------7-------------------------------|||-------------------------------------------------||
>1..............................................24| | | |-8-----------------------------------------------|||-------------------------------------------------*||-9-----------------------0---------------0-------|||-----------------10------------------------------|||-0-------10--------------------------------------*||---------------------------------3---------------||
>2..............................................25| | | |-8------------------------------------------------||--------------------------------------------------||-9-----------------------0-------1----------------||-----------------10--------------2----------------||-0-------10----------------------2----------------||---------------------------------3----------------|
26| | | |5s8------8-------7-------8------8s12--------------||--------------------------------------------------||2s5------5-------4-------5------5s9---------------||--------------------------------------------------||-0------------------------------------------------||---------------------------------0----------------|
27| | | |---------12------11------12--------------13-------||--------------------------------------------------||---------9-------8-------9---------------10-------||--------------------------------------------------||-0------------------------------------------------||---------------------------------0----------------|
28| | | |-13--------------12--------------7----------------||---------------------------------0----------------||-10--------------9--------------------------------||-12--------------10--------------6----------------||---------------------------------7----------------||--------------------------------------------------|
29| | | |-8------------------------------------------------||--------------------------------------------------||--------------------------------------------------||-------------------------7-------7-------9--------||-----------------7--------------------------------||-5-------8----------------------------------------|
CVIII-------------------------------------------30| | | |-8-----------------------8------------------------||-10----------------------10-----------------------||--------------------------------------------------||-10------10------9-------10--------------9--------||-8-------------------------------8----------------||--------------------------------------------------|
31| | | |-8------------------------------------------------||-10--------------11--------------10------9--------||--------------------------------------------------||-10--------------12--------------10------9--------||--------------------------------------------------||--------------------------------------------------|
32| | | |--------------------------------------------------||-10------------------------------8----------------||---------------------------------9----------------||-10------------------------------8----------------||--------------------------------------------------||-----------------8--------------------------------|
33| | | |---------------------------------8----------------||-6-------------------------------11---------------||-5---------------5---------------9----------------||-7---------------8--------------------------------||-8---------------10-------------------------------||---------------------------------8----------------|
34| | | |-8-----------------------8------------------------||-10----------------------10-----------------------||--------------------------------------------------||-10------10------9-------10--------------9--------||-8-------------------------------8----------------||--------------------------------------------------|
35| | | |-8---------------10--------------8-------7--------||-10--------------12--------------10------0--------||-----------------7---------------5-------12-------||-10-----------------------------------------------||--------------------------------------------------||--------------------------------------------------|
36| | | |-8---------------3---------------1----------------||-10--------------5---------------3----------------||---------------------------------0----------------||-10--------------5---------------3----------------||---------------------------------2----------------||--------------------------------------------------|
CODA37| | | |-0-----------------------0------------------------||-1-----------------------1------------------------||-0---------------0--------------------------------||-2-------2----------------------------------------||-3------------------------------------------------||---------------------------------3----------------|
38| | | |-3-----------3---3-------3---------------3--------||-5---------------5-------5---------------5--------||-0---------------0-----------------------0--------||--------------------------------------------------||-3-------3----------------------------------------||---------------------------------3----------------|
39| | | |-3---------------8---------------7----------------||-5---------------10--------------8----------------||-0------------------------------------------------||-----------------10--------------9----------------||-3------------------------------------------------||--------------------------------------------------|
CV--------------------------- CIII--40| | | |-5-------------------------------3----------------||-6-------------------------------6----------------||---------------------------------4----------------||-7------------------------------------------------||-5-------5-------7-------8------------------------||---------------------------------3----------------|
41| | | |-3-----------------------3------------------------||-5-----------------------5------------------------||-5---------------5--------------------------------||-5-------5----------------------------------------||-3------------------------------------------------||-------------------------------------3------------|
42| | | |-3-----------3---3-------3---------------3--------||-5---------------5-------5---------------5--------||-0---------------0-----------------------0--------||--------------------------------------------------||-3-------3----------------------------------------||---------------------------------3----------------|
43| | | |-3---------------8---------------7----------------||-5---------------10--------------8----------------||-0------------------------------------------------||-----------------10--------------9----------------||-3------------------------------------------------||--------------------------------------------------|
44| | | |-5-------------------------------3----------------||-6-------------------------------6----------------||---------------------------------4----------------||-7------------------------------------------------||-5-------5-------7-------8------------------------||---------------------------------3----------------|
45| | | |-3-----------------------3------------------------||-5-----------------------5------------------------||-5---------------5-------------------0------------||-5-------5----------------------------------------||-3------------------------------------------------||--------------------------------------------------|
Bars 46 to 54 are played with "Tambora" technique CV----------------------------------------------- 46| | | ||8-------8-------7-------8-------8-------7--------||*6-------6-------6-------6-------6-------6--------|||5-------5-------5-------5-------5-------5--------|||0-------0-------0-------0-------0-------0--------||*-------------------------------------------------|||-------------------------------------------------|
CV-----------------------------------------------47| | | |-8-------7-8-7---5---------------8-------7--------||-6-------6-------6-------8-------6-------6--------||-5-------5-------5-------5-------5-------5--------||-0-------0-------0-------0-------0-------0--------||--------------------------------------------------||--------------------------------------------------|
CV--48| | | |-8---------------3---------------3----------------||-6-------6-------5-------5-------6-------6--------||-5-------5-------5-------5-------4-------4--------||-0-------0-------5-------5-------3-------3--------||-----------------3-------3-------5-------5--------||--------------------------------------------------|
49| | | |-3-------3-------3-------3-------3----------------||-5-------5-------5-------5-------5----------------||-5-------5-------5-------5-------5----------------||-5-------5-------5-------5-------5----------------||-3-------3-------3-------3-------3----------------||--------------------------------------------------|
50| | | |-5-------5-------3-------5-------5-------3--------||-6-------6-------6-------6-------6-------6--------||-5-------5-------5-------5-------5-------5--------||-3-------3-------3-------3-------3-------3--------||--------------------------------------------------||--------------------------------------------------|
51| | | |-5-------5-------5-------5-------5----------------||-5-------5-------5-------5-------5----------------||-6-------6-------6-------6-------6----------------||-5-------5-------5-------5-------5----------------||-7-------7-------7-------7-------7----------------||--------------------------------------------------|
52| | | |-3---------------3---------------3---------------|||-3---------------5---------------6---------------|||-4---------------4---------------4---------------|||-3---------------3---------------3---------------|||-5---------------5---------------5---------------|||-------------------------------------------------||
>1..............................................53| | | |-3-------3-------3-------3-------3---------------|||-5-------5-------5-------5-------5---------------*||-5-------5-------5-------5-------5---------------|||-5-------5-------5-------5-------5---------------|||-3-------3-------3-------3-------3---------------*||-------------------------------------------------||
>2..............................................54| | | |-3------------------------------------------------||-5------------------------------------------------||-5------------------------------------------------||-5------------------------------------------------||-3------------------------------------------------||--------------------------------------------------|
Play normal again from here on 55| | | ||--------------------------------------------6----||*--------------------------------5---6---8--------|||5-------5p--4h--5-------5h--7--------------------|||8------------------------------------------------||*7------------------------------------------------|||0------------------------------------------------|
56| | | |-8p--6--------------------------------------------||---------5----------------------------------------||-------------8---7p--6---5---2--------------------||---------------------------------2p--0------------||-----------------------------------------3---0----||--------------------------------------------------|
57| | | |---------------------------------15--------------|||---------------------------------0---------------|||-------------------------0-------0---------------|||-----------------0---------------15--------------|||---------2---------------------------------------|||-3-----------------------------------------------||
>1..............................................58| | | |-15----------------------------------------------|||-13----------------------------------------------*||-0---------------0-------------------------------|||-14------------------------------14--------------|||-------------------------------------------------*||-------------------------------------------------||
>2...............................................59| | | |-15-----------------------------------------------||-13-----------------------------------------------||-0------------------------------------------------||-14-----------------------------------------------||--------------------------------------------------||--------------------------------------------------|
60| | | |--------------------------------------------------||--------------------------------------------------||-7-------7-------5-------7---------------5--------||-8-----------------------8------------------------||--------------------------------------------------||-0-------------------------------0----------------|
61| | | |--------------------------------------------------||-----------------8---------------6-------5--------||-7-------5----------------------------------------||-8-------------------------------7-------6--------||--------------------------------------------------||-0------------------------------------------------|
62| | | |--------------------------------------------------||-6---------------1--------------------------------||---------------------------------3----------------||-7---------------2---------------5----------------||--------------------------------------------------||--------------------------------------------------|
63| | | |--------------------------------------------------||--------------------------------------------------||-2------------------------------------------------||-3------------------------------------------------||-------------------------0-------3-------8--------||---------1-------3--------------------------------|
64| | | |--------------------------------------------------||--------------------------------------------------||---------5-------5-------5-------5----------------||-7-----------5------------------------------------||-----------------8---------------7-------8--------||--------------------------------------------------|
65| | | |-----------------8-------7-------8----------------||---------0-------10------8-------10---------------||---------0----------------------------------------||-12-----------------------------------------------||--------------------------------------------------||--------------------------------------------------|
67| | | |---------3---------------3-------3----------------||---------5---------------6-------3----------------||---------------------------------0----------------||--------------------------------------------------||-----------------0---------------2----------------||-0------------------------------------------------|
67| | | |-0------------------------------------------------||-1------------------------------------------------||---------0---0---0-------0-------0-------0--------||--------------------------------------------------||-3------------------------------------------------||--------------------------------------------------| D.C. al CODA then Fine
FINE68| | | |-0------------------------------------------------||-1------------------------------------------------||-0------------------------------------------------||-2------------------------------------------------||-3------------------------------------------------||-3------------------------------------------------|
Created with TablEdit http://www.tabledit.com/ *********************************************************************** ** TablEdited by D.Meineke, 02/01 ** ** e-mail: d.meineke@web.de ** ** Dirkґs GuitarPage at: www.geocities.com/mke_dgp ** ** Get TablEdit file (tef) MIDI (mid) and sheet music (pdf) there. ** ***********************************************************************
Tap to rate this tab
 
# A B C D E F G H I J K L M N O P Q R S T U V W X Y Z