Contemplacion Vals Et Tremelo tab with lyrics by Agustin Pio Barrios Mangore - Easy chords and tabs for guitar

Agustin Pio Barrios Mangore – Contemplacion Vals Et Tremelo tab

                     
                         Contemplacion (Vals et Tremelo)

                                                        Agustin Barrios
Arranged to Tab by Elvis 10/6/00 10:55pm

I think u have to figure out your own fingering! Feel free to email me 
if you have any comments! elvisting@yahoo.com

                                                          
E||--12----------------------|-----7--9--10--9--7--|--12----------------------|B||--10----------------------|--9------------------|------10--10--10--10--10--|G||--------------------------|--7------------------|--------------------------|D||--11----------------------|---------------------|------11--11--11--11--11--|A||--------------------------|--7------------------|--------------------------|E||------12--12--12--12--12--|---------------------|------12--12--12--12--12--|
-----7--9--10--9--7--|--10----------10----------|--9-------------9--7--|--9------------------|------10--10------12--12--|-----10--10--7--------|--7------------------|------------------9---9---|-----9---9---7--------|---------------------|------12--12--------------|-----7---7---9--------|--7------------------|------9---9-------11--11--|----------------------|---------------------|--------------------------|----------------------|
-----9--7-----9--7--|--0------------||----------------------||--7--------6--------|--3------------||----------------------||--8--------7--------|--1------------||*--------------------*||--7--------7--------|--2------------||*-----2--1--2-----2--*||--------------------|---------------||---0------------------||--------------------|--0------------||---------------0------||
S Tremelo ------------------------0-|----9---9---9---9---9---9-|----2---2---2---3---4-----|----------0---------------|--------------------------|--------------------------|------2---1---2---1---0---|--------------7---6---7---|--0-----------------------|------7-------------------|--------------------------|--9-----------------------|
----12----12---17----17---12----12-|----14----14----14----14---12----12-|-----------------------------------|------------------------------------|-----------------------------------|-------------11----------9----------|-------11---------16---------11----|-------10----------10---------11----|--0---------------------0----------|--0---------------------------------|-------------0---------------------|------------------------------------|
----12---12---12---12---10---9-|----7---7---0---0---0---0-|-------------------------------|--------------------------|-------------------------------|--------------------------|----------------------9----7---|------6-------6-------6---|-------9----8----9-------------|----------5-------7-------|--7----------------------------|--0-----------------------|
-----0----0----10---10---9---9-|----7---7---7---10---10---10-|-------------------------------|----------0--------7----9----|-------------------------------|--------------9--------------|-------11---------9--------7---|------6----------------------|--12--------11---------9-------|--7--------------------------|-------------------------------|-----------------------------|
go to *
----9----9----9---9----14----14-|----12----12---10----10----9---9-|------12---10---9---------------|---------------------------------|--------------------------12----|-------12---------11---------9---|--------------------------------|--8----------9----------11-------|--0-----------------12----------|---------------------------------|--------------------------------|---------------------------------|
1.-----
----7---7---7---7---12----14-|----2---2---2---2---2---2-|----------7------------------|--------------0-------0---|------7-------7---9----11----|------2-------------------|--0--------------------------|--1---------------1-------|-----------------------------|----------2---------------|-----------------------------|--------------------------|
----5---5---4---4---5---5-|----7---7---7---7---4---4-|----------4-------4-------|--------------------------|------4-------4-------4---|----------7-------7-------|--4-----------------------|------6-------6-------6---|--------------------------|--------------------------|--------------------------|--0-----------------------|
2.----------
----2---2---0---0---------|----7---7---9---9---1---1-|--------------------3---3-|----------7---------------|------2-------3-------4--*|------7---------------2---|-------------------------*|--0-----------0---1-------|--------------------------|--------------------------|--2-------3-------4-------|--------------------------|
----0---0---2---4---5---7-|----9---9---9---9---7---7-|--------------------------|--------------------------|------1---2---4---6---7---|------9-------9-------7---|--2-----------------------|----------5-------6-------|--------------------------|--9-----------------------|--------------------------|--------------------------|
----5---5---5---5---5---5-|--------------------|----9---9---9---9---9---9-|--------------7---5-------|-----------7--5-----|--------------7-----------|----------6---------------|--------6-----------|----------6-------9-------|------7-------------------|-----7--------------|------7---------------7---|--0-----------------------|--0-----------------|--0-----------------------|----------------------0---|-----------------0--|--------------------------|
----10---10---10---10---10---10-|----8---8---9---9---5---5-|------------0----7--------------|--------------------------|----------------------9---------|------8-------9-----------|-------6-------------------6----|----------7-----------4---|--------------------------------|--0-----------------------|--0-----------------------------|------------------2-------|
----7---7---7---7---9---9-|----5---5---5---5---5---5-|--------------------|--------------------------|--------------7---5-------|--------------------|----------7-----------9---|------6-------------------|--------------------|--------------------------|----------7---------------|-----2-----4--2-----|------7-------7-----------|--0-----------------------|--0-----4-----------|--4---------------0-------|----------------------0---|-----------------0--|
|-----9---9---9---9---9---9-|----10---10---10---10---10---10-||---------------7-----------|------------0----7--------------||*----------6-------9-------|----------------------9---------||*------7---------------7---|-------6-------------------6----||---0-----------------------|--------------------------------||---------------------------|--0-----------------------------|
----8---8---9---9---5---5-|----7---7---7---7---7---7-|--------------------------|--------------------------|------8-------9-----------|----------7-------7-------|----------7-----------4---|--------------------------|--0-----------------------|------7-------7-------7---|------------------2-------|--4-----------------------|
----7---7---9---9---10---10-|-----16----16----16----16----14----14-|----------7-------7---------|--------------------------------------|------7-------7-------------|--------------14----------14----------|--0--------------------0----|--------------------------------------|----------------------------|--------14----------14----------14----|----------------------------|--11----------------------------------|
----7---7---9---9---10---10-|----14----14----14----14----12----12-|----------------------------|-------------10----------------------|----------7-------7---------|-------------------------12----------|----------------------------|-------11----------11----------11----|------7-------7--------7----|--0----------------------------------|--4-------------------------|-------------------------------------|
----5---5---5---5---7---7-|----9----9---9---9----9----9-|----------7-------6-------|-----------9-----------------|------7-------7-------7---|---------------9-------------|--0-----------------------|-------------------11--------|--------------------------|------11----------------11---|--------------------------|--9--------------------------|
----7---7---7---7---9---10-|----5---5---5---5---4---4-|------------------7--------|----------6---------------|--------------7-------7----|--------------4-------4---|----------9----------------|------6-----------6-------|------9--------------------|--4-----------------------|--7------------------------|--------------------------|
----2---2---2---2---2---2-|----1---1---2---2---4---4-|----------2---------------|----------3-----------3---|--------------2-------2---|------4-------4-----------|------------------4-------|--------------------------|------4-------------------|--------------------------|--2-----------------------|--4---------------4-------|
1.-------------- ----7---7---7---7---5---5-|----4---4---4---4---2---2-|----------7-------7-------|----------3---3-------3---|------6-------6-------6---|------4-------------------|--------------------------|--------------------------|--0-----------------------|--2---------------3-------|--------------------------|--------------------------|
|-----9----9---9----9----9----9--||-----14----14----14----14----14----14-||------------9-------------------||--------------------------------------||*---------------10-------------*||--------------------------------------||*--------------------11---11---*||--------11----------11----------10----||-------11-----------------------||--12----------12----------12----------||---9----------------------------||--------------------------------------|
-----14---14----12---12----12---12-|----12---12---10---10---8---8-|-----------------------------------|------------------------------|-----------------------------------|------------------------------|--------9----------9----------9----|-------7---------7--------7---|--11---------11---------11---------|--9---------9---------9-------|-----------------------------------|------------------------------|
----9---9---9---9---9---9-|----9---9---10---10---9---9-|--------------------------|----------------------------|--------------------------|------0--------0--------0---|------6-------6-------6---|----------------------------|--8-------8-------8-------|--7-------7---------7-------|--------------------------|----------------------------|
-----9---9----9---9-------------|------------------------------|-----------------------12----12-|----10---10---10---10---9---9-|--------------------------------|------------------------------|--------------------------------|------------9-----------------|-------9--------9---------------|-------8---------8--------8---|--10-------10-------10----10----|--9-------------------9-------|
----2---2---2---2---2---2-|----1---1---1---1---0---0--||----------------------2---|------0---0---0------------||------------------2-------|----------------------1---*||--------------4-----------|--------------------------*||----------4---------------|---------------------------||--2---5-------------------|--4---------------0--------||
2.--------------- ----4---4---4---4---2---2-|----0---0---0---0---0---0-|------------------4-------|----------0---------------|------4---4---4-------2---|--------------1-----------|--------------------------|------------------2-------|--2-----------------------|------2---------------2---|--------------------------|--0-----------------------|
----0---0---0---0---0---0-|-----0----0----0----0----0----0-|----------------------0---|------------14---12-------------|------------------1-------|-------13-------------13--------|--------------2-----------|--14-----------------------14---|----------2---------------|--------------------------------|--0---4-------------------|--------------------------------|
-----0----0----0---0---0---0-|----0---0---0---0---0---0-|-----------------0-----------|--------------------------|-----------------------------|--------------------------|--14---13---12-------6---4---|--------------------------|-----------------------------|--7---6---5---2-----------|-----------------------------|------------------4---2---|
----0---0---0---0---0---0-|----0---0---0---0---0---0-|----------------------0---|--------------------------|------------------1-------|--------------------------|--------------2-----------|--2---2---2---2---2---2---|----------2---------------|--------------------------|--0---4-------------------|--------------------------|
to S then * *
----0---0-----------------|----7---7---9---9---1---1-|------------4---4---3---3-|----------7---------------|------------------1---1---|------7---------------2---|--2---2---4---4-----------|------------------1-------|--------------------------|--6-----------6-----------|--------------------------|--------------------------|
----0---0---2---4---5---7-|----9---9---9---9---7---7-|--------------------------|--------------------------|------1---2---4---6---7---|------9-------9-------7---|--2-----------------------|----------5-------6-------|--------------------------|--9-----------------------|--------------------------|--------------------------|
----5---5---5---5---5---5-|----5---5---5---5---5---5-|--------------3---2-------|--------------7---5-------|----------2---------------|----------6---------------|------2-------------------|------7-------------------|--0-----------------------|--0-----------------------|----------------------0---|----------------------0---|
----9----9---9----9----9---9-|----12----12----12----12----12---12-|---------------12---10-------|-------------------15----14---------|-----------9-----------------|-------------14---------------------|------11---------------------|-------14---------------------------|--0--------------------------|--0---------------------------------|-------------------------0---|-------------------------------0----|
|-----17----17----17----17----17---17--||--17------------|--5------------|||--------------------15----14----------||--14------------|--5------------|||*-------------14---------------------*||--14------------|--6------------|||*-------14---------------------------*||----------------|--7------------|||---0----------------------------------||--0-------------|--7------------|||--------------------------------0-----||----------------|--5------------||
Please rate this tab:
x1.0