Albert Collins - Alberts Alley tab

#-----------------------------PLEASE NOTE-------------------------------------#
#This OLGA file is the author's own work and represents their interpretation  #
#of the song. You may only use this file for private study, scholarship, or   #
#research. Remember to view this file in Courier, or other monospaced font.   #
#See http://www.olga.net/faq/ for more information.                           #
#-----------------------------------------------------------------------------#

Subject: c/collins_albert/alberts_alley.tab
Date: Wed, 18 Jun 1997 19:04:29 -0500 (CDT)
From: letostak@ix.netcom.com

Albert Collins - Albert's Alley
from Showdown
letostak@ix.netcom.com (Judy Letostak)

This tab is NOT 100% accurate or complete.  We
are practicing musicians, not professional tabbers.
If we were, we'd be working for the guitar magazines.
Suggestions and comments are always welcome.  For
complaining and whining, call Dr. Laura.

Tune to Eminor 6=E 5=B 4=E 3=G 2=B 1=E

------------------------------------------------|------------------------------------------------|---------------------------8h9------------------|-----8--8-----------------------------8--8------|-10--------10---------------------10--------10--|------------------------------------------------|
------------------------------------------------|------------------------------------------------|-8h9--------------------------8--10--11p10p8----|------8------8-------------8------------------8-|---------10-----10------------------------------|------------------------------------------------|
------------------------------------------------|-------------11h13~----11-----------------------|-8---8---------------------12-----10p8----------|-----8----------------------------------8-------|----10------------------------------------------|------------------------------------------------|
--------------------------------------------------|--------------------------------------------------|------------------------------------------8h9--10-|-11h12--11h12----8---------------------8----------|--------------------10--8-------8--10-------------|--------------------------------------------------|
7x==------------------------------------------------|------------------------------------------------|-10p9-----10--9--------------8--9---------------|-----------------8--------8---------------11h13-|----------------------10-----------11-13--------|------------------------------------------------|
===============5x============------------------------------------------------|------------------------------------------------|------------------------------------------------|--11------------------11h13---------------------|------13p11----11-13----------------------------|------------------------------------------------|
------------------------------------------------|------------------------------------------------|------------------------------------------------|--11-----------------------8--------------------|------13p11-------------------------------------|------------------------------------------------|
mutedrepeat 10x------------------------------------------------|----13--13-13-13-13-13-13-13-13-13-13-13--------|------------------------------------------------|------------------------------------------------|------------------------------------------------|------------------------------------------------|
-------------------------------------------------|-13-13-13-13-13-13-13-13-13----------13-13-13-13-|----------------------------14-14----------------|----------------------------------8--------------|-------------------------------------------------|-------------------------------------------------|
--------13bf-----13bf---13bf--11----------------|----------------------------------13~-----x-----|--14--------------------------------------8-----|--8---------------------------------------------|------------------------------------------------|------------------------------------------------|
release slightly--13bf----13bf----------------------------------|------------------------------------------------|------------------------------------------------|------------------------------------------------|------------------------------------------------|------------------------------------------------|
-11b(12)----------------------------------------|----------13~--13~--11-8------------------------|-------------------------11---------------------|-----------------------------11h12--8----8------|--------------------------------------10---10---|----------------------------------------------8-|
=10x=---------8---------8----------------------8-----|--8--10-----11p10--------11p10------11p8-11/13--|------------------------------------------------|------------------------------------------------|------------------------------------------------|------------------------------------------------|
------------------------------------------------|-13~---13~----11--8---8--------------------8--8-|---------------------10-------------------------|-------------------------11h12--8----11p8-------|----------------------------------10------------|------------------------------------------------|
-----8------------------------------------------|-11-----13--------------------------------------|------------------------------------------------|------------------------------------------------|------------------------------------------------|------------------------------------------------|
===========4x================------------------------------------------------|-13~~~~13~~~~~13~~~~~13~~~~~--------------------|------------------------------------------------|------------------------------------------------|------------------------------------------------|------------------------------------------------|
------------------------------------------------|-11--13p11~---11~---8--8------------------------|--------------------------10p8-----8--10p8------|--------------------------------8-----------8---|------------------------------------------------|------------------------------------------------|
------------------------------------------------|------------------------------------------------|-10bf--rb10p8-----8--10p8--8h9------10p8--------|---------------8----------------8----------11p8-|------------------------------------------------|------------------------------------------------|
------------------------------------------------|------------------------------------------------|-10p8--8h9-----10p8---8h9-----10-------8h9------|------------8--------------8------8---------8---|------------------------------------------------|------------------------------------------------|
------------------------------------------------|--------------------------8--------11/13--13~---|-10p8--8h9-----10b(11)p8-----10p8---------------|------------8-----------------------------------|------------------------------------------------|------------------------------------------------|
------------------------------------------------|-13~-----11--8-----------------------------8----|----------------10-------------------------8----|--------------------11h12--8------8-------------|------------------------------10-----10p8-------|------------------------------------------------|
------------------------------------------------|------------------------------------------------|----------------------------------------8-------|--11bf----11p8--------------------------8-------|----------------11p8--------------------8---10--|----------------------13--11--11b(12)-----------|
------------------------------------------------|------------------------------------------------|-12---------------------------------------------|-11---11h12h13--13-13b(15)--11/12p8-----8-------|------------------------------------10-----10---|------------------------------------------------|
-------------------------------------------------|--8h10p8-----------------------------------------|--8h10p8-----------------------------------------|--8---------8--11--12--8---13--11h12--p8---------|-------------------------------------------------|-----------------------------------------20--20\-|
------------------------------------------------|------------------------------------------------|-----8--10-----10bf--10bf~--10p8h9-----8h9--8h9-|--8---------8-----------------------8-----------|------------------------------------------------|------------------------------------------------|
------------------------------------------------|------------------------------------------------|------------------------------------------------|-8----------------------------------------------|----11p8-----11---11--8-------------------------|----------8--------------13-13--11--\8----------|
------------------------------------------------|-------13~--13--13-----11--8--------------------|-8----------------------------10----------------|----8---------------------------------11h12--8--|------------------------------------------------|------------------------------------------------|
------------------------------------------------|------------------------------------------------|--------8--10b(11)rb10p8--10~-------------------|-----8-------------------------11/12--8------8--|-10--------------------------------------10-----|------------------------------------------------|
-------------------------------------------------|-------------------------------------------------|---------8--10-----11-----10-----8-----11-----10-|-----8----------8------8------8-----8------8-----|-10--8-------------------------------------------|-------------------------------------------------|
------------------------------------------------|------------------------------------------------|----8-----10-----8-----10-----8h9-----10--8-----|-8-----8------8-----8------8-------8------------|------------------------------------------------|------------------------------------------------|
------------------------------------------------|--------------13~~~~~13~~~~~13~~~~~---11--8-----|-10p8----------------------------------------10-|-------8----------------------------------------|------------------------------------------------|------------------------------------------------|
------------------------------------------------|----------------------------11~~~11~~~----------|------------------------------------------------|-11/12p8--------8-------------------------------|----------10p8------10--8-----------------------|------------------------------------------------|
==============3x========------------------------------------------------|-11~~~~11~~~~11~~~~11~~~~-----------------------|------------------------------------------------|------------------------------------------------|------------------------------------------------|------------------------------------------------|
------------------------------------------------|--11--11/13--13b(16)--rb13----------------------|------------------------------------------------|------------------------------------------------|------------------------------------------------|------------------------------------------------|
===============================2x===============--------------------------------------------------|-13~~13~~~13~~~~----13~~~13~~~---13~~13~~13~~13~~-|--------------------------------------------------|--------------------------------------------------|--------------------------------------------------|--------------------------------------------------|
------------------------------------------------|-13~~13~~13~~--11--8----------------------------|----------------------10---8--10p8-----10bf--10-|------------------------------------8-----------|------------------------------------------------|------------------------------------------------|
------------------------------------------------|----------------------------11-13p11~~11~~~~----|---------------------/11p8----------------------|-11/12--8------11-8-----------------------------|-----------11-----------------------------------|------------------------------------------------|
------------------------------------------------|---------------11bf----8------8-----------------|-12--10p8-----------------8------11p8-----8-----|-----------8---------------------------8--------|------------------------------------------------|------------------------------------------------|
------------------------------------------------|------------------------------------------------|-10h12p10--12p10p8-----10~----------------------|--------------------8--------11/12--8------8----|---------------------------------------10-------|------------------------------------------------|
------------------------------------------------|------------------------------------------------|------------------------------------------------|----------------11h13---------------------------|-10--8--11--13----------------------------------|------------------------------------------------|
=================2x====================------------------------------------------------|------------------------------------------------|------------------------------------------------|-11--------------------------11h13--------------|-----13p11-----------11--13---------------------|------------------------------------------------|
------------------------------------------12----|------------------------------------------13----|------------------------------------------------|--11--------------------11h13-11----------------|------13p11------11-13------------13p11---------|------------------------------------------------|
------------------------------------------------|------------------------------------------------|------------------------------------------------|----------11h13-----11---------11h12--11h12-----|--11--13----------------13p11-------------------|------------------------------------------------|
------------------------------------------------|------------------------------------------------|------------------------------------------------|--8----------------11h13--11--------------------|-----10-----11-13-------------13p11-------------|------------------------------------------------|
------------------------------------------------|---------13--13~--------------13---13~----------|------------------------------------------------|----8----------------------8--------------------|------------------------------------------------|------------------------------------------------|
------------------------------------------------|----13---13~-------------------------13--13~----|------------------------------------------------|-8---------------15\11b(12)---8---8-------------|------------------------------------------------|------------------------------------------------|
------------------------------------------------|------11~---------------------13--13~-----------|------------11p10p8-----------------------------|--8------------------8-----8--------------------|------------------------------------------------|------------------------------------------------|
--------------------------------------------------|------------------------------------11/13---------|-12-10p8------------------------------------------|----------8---8----------------------------11b(12-|----------------10p8---11-------------------------|---------------------------13p11p8----------------|
------------------------------------------------|------------------------------------------------|--------------------------------x\--------------|--8h11------------------------------------------|--------11p8------------------------------------|--------------8--13--11b(12)--------------------|
------------------------------------------------|--8---11/13--13--13~--13-13-8-------------------|--9---------------------------10p8---8h10-10p8--|--8--------------------------------8------------|-11---------------------------------------------|--8---------------------------------------------|
------------------------------------------------|------------------------------------------------|----10bf----10bf---10p8-------------------------|-8-----------------------8----------------------|----------------------------8--8----------------|----------------------------------13--11b(12)---|
------------------------------------------------|------------------------------------------------|------------------------------------------------|------------------------------------------------|--13~~~----13\----------------------------------|------------------------------------------------|
=========================================================== h = hammeron ps = pick scrape p = pulloff % = repeat phrase ~ = vibrato letostak@ix.netcom.com b = bend + natural harmonic /\ = Slide * = Artificial Harmonic x = ghost note tr = trill =========================================================== letostak@ix.netcom.com (Judy Letostak) email for guitar and bass tabs
Tap to rate this tab
 
# A B C D E F G H I J K L M N O P Q R S T U V W X Y Z