Albert King - Crosscut Saw tab

Crosscut Saw
Albert King


E||---------------------|--7b---------------|------------------------------|B||---------------9--9--|-------------------|------12b---12-9---12p-9------|G||------------8--------|-------------------|--------------------------11--|D||---------------------|-------------------|------------------------------|A||---------------------|-------------------|------------------------------|E||---------------------|-------------------|------------------------------|
---------------------|----------------9b-|------7---------------|--9----12b-----------|-------------------|--------9---9p---x----|---------------------|-------------------|----------------------|---------------------|-------------------|----------------------|---------------------|-------------------|----------------------|---------------------|-------------------|----------------------|
----------------------------|--------------------|----------------------|----9--12b---12-9--12b--12b-|--9p--x-------------|-------------------9--|----------------------------|--------------------|----------------8-----|----------------------------|--------------------|------------11--------|----------------------------|--------------------|----------------------|----------------------------|--------------------|----------------------|
---------------------------------------|----------------------------|---------------9-----------------------|--9--12b-----12p9-12b--12b--|--11--8--11-------8--11p-8-----------8-|----------------------------|----------------------------11----11---|----------------------------|---------------------------------------|----------------------------|---------------------------------------|----------------------------|
-------------------------|----------------------|-----------------4--|--9----9----9\7----------|----------------------|--------------------|----------------8--6-----|----------------------|--------------6b----|----------------------9~-|----6-----------------|--------------------|-------------------------|-------6--6----9------|--------------------|-------------------------|----------------------|--------------------|
------------------|-------------------|--4-----4-------------|------------------|-------------------|-----7-----7----------|------------------|----------6b-------|----------------------|------------------|-------------------|----------------------|------------------|-------------------|----------------------|------------------|-------------------|----------------------|
------------7-------|--7------------------|------------4----------------|---------------9~---|-----9p-7------------|---------4-----7----4--------|--------------------|---------------------|------6b---------------6p-4--|--------------------|---------------------|-----------------------------|--------------------|---------------------|-----------------------------|--------------------|---------------------|-----------------------------|
----------------------|-------------------|-------------------|--------9--7----------|-------------------|--7----------------|----6/8---------------|----------------x--|-------------------|----------------------|-------------------|-------------------|----------------------|-------------------|-------------------|----------------------|-------------------|-------------------|
--------------------------|---------------------|-----------------4--|--------------9-----------|---------------------|--------------------|---------6/8-----8--6--4b-|---------------------|--------------6b----|--------------------------|----6----------------|--------------------|--------------------------|-------6--6----------|--------------------|--------------------------|---------------------|--------------------|
------------------|-------------------|--4-----4-------------|------------------|-------------------|-----7-----7----------|------------------|----------6b-------|----------------------|------------------|-------------------|----------------------|------------------|-------------------|----------------------|------------------|-------------------|----------------------|
------------7-------|--7------------------|------------4----------------|---------------9~---|-----9p-7------------|---------4-----7----4--------|--------------------|---------------------|------6b---------------6p-4--|--------------------|---------------------|-----------------------------|--------------------|---------------------|-----------------------------|--------------------|---------------------|-----------------------------|
----------------------|-------------------|-------------------|--------9--7----------|-------------------|--7----------------|----6/8---------------|----------------x--|-------------------|----------------------|-------------------|-------------------|----------------------|-------------------|-------------------|----------------------|-------------------|-------------------|
--------------------------|---------------------------|--------------------|--------------9-----------|-------------------12--14--|--14b---------------|---------6/8-----8--6--4b-|---------------13----------|--------------------|--------------------------|----6----------------------|--------------------|--------------------------|-------6--6----------------|--------------------|--------------------------|---------------------------|--------------------|
--------------------------|--------------------|--------------------|------14b---14b---12------|--------------------|------------14r-----|---------------------13---|--13~---------------|--------------------|--------------------------|--------------------|--------------------|--------------------------|--------------------|--------------------|--------------------------|--------------------|--------------------|
--------------------|---------------------------|--------------------|--------------------|------12b---12p9-12b---12b-|--12\---------------|---------------13~--|---------------------------|--11\---------------|--------------------|---------------------------|--------------------|--------------------|---------------------------|--------------------|--------------------|---------------------------|--------------------|
------------------------|--------------------------|--------------------14--|--------13b---------13b---|------------13--16------|--15b---------15b---------|------------------------|--------------------------|------------------------|--------------------------|------------------------|--------------------------|
--------------------------------|-------------------------|--------------------------------|------------9\7-4--------|------15b---16-13-----16p13-----|--13~--------------6--4b-|------------------13--------16--|-------------------------|--------------------------------|-------------------------|--------------------------------|-------------------------|
----------2/4------9b---|--7b---------------|------------------------|----------2/4---9-------|-------------------|------14b---14b---14r---|------------------------|-------------------|------------------------|----6-------------------|-------------------|------------------------|-------6----------------|-------------------|------------------------|------------------------|-------------------|------------------------|
---------------------|--------------------|-------------------|---------------------|--------------------|--------------9----|--13~-------x\-------|----16b-------------|-------------------|------------x\-------|--------------------|-------------------|---------------------|--------------------|-------------------|---------------------|--------------------|-------------------|
---------------------------|-------7--------------|------12b---12-9-12b---12b-|--9------9p7----------|---------------------------|----------------------|---------------------------|----------------------|---------------------------|----------------------|---------------------------|----------------------|
---------------------------------|----------------------------------------|------------9-----7--------------|----------------------------------------|------6/-8-----8-------11/13-13--|--16b---16--13--------------------------|---------------------------------|----------------13--16--13--11/-----13--|---------------------------------|----------------------------------------|---------------------------------|----------------------------------------|
-------------------------------------|-------------------------|------------------12--9--12b---12b---|--9----9----9\7-4--------|--13------16b------------------------|-------------------6--4b-|------13-----------------------------|-------------------------|-------------------------------------|-------------------------|-------------------------------------|-------------------------|
---------------------|-----------------4--|------------------|---------------------|--------------------|------------------|---------------------|--------------6b----|------------------|----6----------------|--------------------|------------------|-------6--6----------|--------------------|------------------|---------------------|--------------------|------------------|
-------------------|--4-----4-------------|------------7-------|-------------------|-----7-----7----------|---------------9~---|----------6b-------|----------------------|--------------------|-------------------|----------------------|--------------------|-------------------|----------------------|--------------------|-------------------|----------------------|--------------------|
--7------------------|------------4----------------|----------------------|-----9p-7------------|---------4-----7----4--------|--------9--7----------|---------------------|------6b---------------6p-4--|----6/8---------------|---------------------|-----------------------------|----------------------|---------------------|-----------------------------|----------------------|---------------------|-----------------------------|----------------------|
-------------------|-------------------|--------------------------------|-------------------|--7----------------|--------------------------------|----------------x--|-------------------|----------------13--------------|-------------------|-------------------|---------11/13------13--11------|-------------------|-------------------|----------------------------14b-|-------------------|-------------------|--------------------------------|
--------------------|----------------------|--------------------|--14b---------------|--------------12------|--------------------|--------------------|-----------------13~--|--13~---------------|--------------------|----------------------|--------------------|--------------------|----------------------|--------------------|--------------------|----------------------|--------------------|
--------------------|------------------||----------------14r-|------------------||--------------------|------------------||--------------------|------------------||--------------------|------------------||--------------------|------------------||
Tap to rate this tab
 
# A B C D E F G H I J K L M N O P Q R S T U V W X Y Z