Alesana - Seduction tab

By Francis SHC Lucena
09283150081
f_sario@yahoo.com

Intro-GtrI|---------------------------------------------||---4---4-----4---4---4---4---4-----4---4---4-||---4---4-----4---4---4---4---4-----4---4---4-||-6---6-----6---6---6----6---6-----6---6---6--|...|---------------------------------------------||---------------------------------------------|
Verse-GtrI|------------------------------------------------------------------------------------------||-------------------(-----elevens-----)--------------------------------------(--elevens-)--||-999-99-99-99-9999-111111111111111111-131313-1313-1313-1313-13131313--131313-11111111111--||-777-77-77-77-7777-999-99-99-99-9999--111111-1111-1111-1111-11111111--111111-99-99--9999--|3x |-777-77-77-77-7777-999-99-99-99-9999--111111-1111-1111-1111-11111111--111111-99-99--9999--||-777-77-77-77-7777-999-99-99-99-9999--111111-1111-1111-1111-11111111--111111-99-99--9999--|
|-----------------------------------------------------------------------------------------||-------------------(-----elevens-----)---------------------------------------------------||-999-99-99-99-9999-111111111111111111-131313-1313-1313-1313-13131313---------------------||-777-77-77-77-7777-999-99-99-99-9999--111111-1111-1111-1111-11111111---------------------| |-777-77-77-77-7777-999-99-99-99-9999--111111-1111-1111-1111-11111111---999999999999999---||-777-77-77-77-7777-999-99-99-99-9999--111111-1111-1111-1111-11111111---999999999999999---| ***************
GtrIIdo 2x0:28|----------------------------| |-----------------9----------||-----------9------12--------| |----------9----------12-----||----9-11-----11------11-----| |---9--11-----11-------------||-99--9--99--9---9---9-------|3x |-99--9--99--9---9---9-------||----------------------------| |----------------------------||----------------------------| |----------------------------| ** * ** * * * ** * ** * * * GtrIII same as GtrI
Refrain-GtrI|------------------------------------------------------||------------------------------------------------------||-6--------9----------6-----------9~-------------------||-4--------7----------4-----------7~-------------------||-4--------7----------4-----------7~-------------------||-4--------7----------4-----------7~-------------------|
GtrII|--------------------------------| |--------------------------------| |-5--0-5-0-7-0-5-0-9-0-5-0-5h7---| |-5--0-5-0-7-0-5-0-9-0-5-0-5h7-5-||--------------------------------|2x|--------------------------------||--------------------------------| |--------------------------------||--------------------------------| |--------------------------------||--------------------------------| |--------------------------------|
GtrIII
|-2--0-2-0-4-0-4-0-7-0-4-0-4h5---| |-2--0-2-0-4-0-4-0-7-0-4-0-4h5-0-| |--------------------------------| |--------------------------------| |--------------------------------|2x|--------------------------------||--------------------------------| |--------------------------------||--------------------------------| |--------------------------------||--------------------------------| |--------------------------------|
Chorus-GtrIGtrIIGtrIII|-----------------------------------------------------||-----------------------------------------------------||-13131313131313131313131313-----9999999999999999-----||-11111111111111111111111111-----7777777777777777-----||-11111111111111111111111111-999-7777777777777777-----||-11111111111111111111111111-999-7777777777777777-----| ***
GtrI&GtrII|-------------------------------------------------------------||-------------------------------------------------------------||-8-8-88-1111111-13-13-1313-14-11-1313131313131313------------||-------------------------------------------------------------||-6-6-66-9-9-99--11-11-1111-12-9--1111111111111111--99999999--||---------------------------------------------------99999999--|
********GtrIII|---------------------------------------------------||---------------------------------------------------||-6-6-66-8-8-88--9-9-99--11-8--999999999------------||---------------------------------------------------||-4-4-44-6-6-66--7-7-77--9--6--777777777--99999999--||-----------------------------------------99999999--|
********thenGtrI|-----------------------------------||---4---4-----4---4---4---4---4-----||---4---4-----4---4---4---4---4-----||-6---6-----6---6---6----6---6------|...|-----------------------------------||-----------------------------------|
Verse2GtrI|------------------------------------------------------||------------------------------------------------------||-88-88-88-88-88-88-88-88-99-99-99-99-99-99-99-99------||-66-66-66-66-66-66-66-66-77-77-77-77-77-77-77-77------||-66-66-66-66-66-66-66-66-77-77-77-77-77-77-77-77------||-66-66-66-66-66-66-66-66-77-77-77-77-77-77-77-77------|
|------------------------------------------------------||------------------------------------------------------||-88-88-88-88-88-88-88-88-99-99-99-99-99999999999------||-66-66-66-66-66-66-66-66-77-77-77-77-77777777777------||-66-66-66-66-66-66-66-66-77-77-77-77-77777777777------||-66-66-66-66-66-66-66-66-77-77-77-77-77777777777------|
GtrII1:37|--------------------| |----------------------------------------------------||----9--12~---9--12~-| |---------12~----------12~-------------9------12-----||--------------------|2x |-----9-----------9-----------9--11-------11------11-||-99--9-----99--9----| |-1111--11----1111--11----1111-11--1111-11--11--11---||--------------------| |----------------------------------------------------||--------------------| |----------------------------------------------------| ** * ** * * * * * * * * * * * * * * *
GtrIII
|------------------------------------------------------||------------------------------------------------------||-88-88-88-88-88-88-66-88-99-99-99-99-99-99-1111-1414--||------------------------------------------------------||-66-66-66-66-66-66-44-66-77-77-77-77-77-77-9-9--1212--||------------------------------------------------------|
|------------------------------------------------------||------------------------------------------------------||----88----88----66----66----88----88----66----88------||------------------------------------------------------||-66-66-66-66-44-44-44-44-66-66-66-66-44-44-66-66------||------------------------------------------------------| ** ** ** ** ** ** ** **
|------------------------------------||------------------------------------||----99----99----88----88-999999999--||------------------------------------||-77-77-77-77-66-66-66-66-777777777--||------------------------------------| ** ** ** ** Do refrain and Chorus-
GtrI@ 2:18|-----------------------------------------------------------------------------------------------||-----------------------------------------------------------------------------------------------||---------------131313-131313-666-666-999-999-131313-131313-131313-131313-666-666-8888888888----||---------------111111-111111-444-444-777-777-111111-111111-111111-111111-444-444-6666666666----||---------------111111-111111-444-444-777-777-111111-111111-111111-111111-444-444-6666666666----||---------------111111-111111-444-444-777-777-111111-111111-111111-111111-444-444-6666666666----|
GtrII@ 2:18|--------------------------------------------------------------||-----------7h9---------------9h10---------7h9---------12h14---||---------------131313-131313------666-666------999-999--------||---------------111111-111111------444-444------777-777--------||---------------111111-111111------444-444------777-777--------||---------------111111-111111------444-444------777-777--------|
|---------------------------------------------------------||---------------7h9-----------9h10---------7h9------------||--131313-131313------666-666------999-999-----8888888888-||--111111-111111------444-444------777-777----------------||--111111-111111------444-444------777-777-----6666666666-||--111111-111111------444-444------777-777----------------|
GtrIII@ 2:16|--------------------------------------------------------------||--------------------------------------------------------------||--------------8h9-131313-131313-8h9--666-666--8h9-999-999-8h9-||-111111-111111----111111-111111------444-444------777-777-----||-111111-111111----111111-111111------444-444------777-777-----||-111111-111111----111111-111111------444-444------777-777-----|
|---------------------------------------------------------||---------------------------------------------------------||--131313-131313-8h9--666-666-8h9--999-999-8h9-8888888888-||--111111-111111------444-444------777-777----------------||--111111-111111------444-444------777-777-----6666666666-||--111111-111111------444-444------777-777----------------|
Solo/bridge-GtrI|-------------------------------------------------------------||-------------------------------------------------------------||-99999999-1111111111111111-131313131313131313131313-11111111-||-77777777-9-9-9-9-9-9-9-9--111111111111111111111111-9-9-9-9--|3x|-77777777-9-9-9-9-9-9-9-9--111111111111111111111111-9-9-9-9--||-77777777-9-9-9-9-9-9-9-9--111111111111111111111111-9-9-9-9--|
|----------------------------------------------------------||----------------------------------------------------------||-99999999-1111111111111111-1313-1313-1313-1313-1313-1313--||-77777777-9-9-9-9-9-9-9-9--1111-1111-1111-1111-1111-1111--||-77777777-9-9-9-9-9-9-9-9--1111-1111-1111-1111-1111-1111--||-77777777-9-9-9-9-9-9-9-9--1111-1111-1111-1111-1111-1111--|
GtrII
|---------------------------------------------------||-----7h9p7---7-9~-7h9p7---7-5~-5-7~-7-9~-10-9-7~---||-/9~-------8~-----------8--------------------------||---------------------------------------------------||---------------------------------------------------||---------------------------------------------------|
|---------------------------------------------------||-9~-7h9p7---7-9~-7h9p7---7-5~-5-7~-7-9~-10-9-7~----||----------8~-----------8---------------------------||---------------------------------------------------||---------------------------------------------------||---------------------------------------------------|
|----------------------------------------------------------------------||-/12~-12h14p12----12-14--12h14p12----12-10~-10-12~--12-14~--16-14-12~-||--------------13~----------------13~----------------------------------||----------------------------------------------------------------------||----------------------------------------------------------------------||----------------------------------------------------------------------|
|---------------------------------------------------||-9~-7h9p7---7-9~-7h9p7---7-5~-5-7-/14~~~~~~~~~~----||----------8~-----------8---------------------------||---------------------------------------------------||---------------------------------------------------||---------------------------------------------------|
GtrIII
|-----------------------------------------------------------||-------------4h5p4---4-5~-4h5p4----4-2~-2-4~-4-5~--7-5-4~--||---------/6~-------4~-----------4~-------------------------||-///////---------------------------------------------------||-///////---------------------------------------------------||-///////---------------------------------------------------|
|------------------------------------------------------||-5~-4h5p4---4-5~-4h5p4----4-2~-2-4~-4-5~--7-5-4~------||------------------------------------------------------||------------------------------------------------------||------------------------------------------------------||------------------------------------------------------|
|---------------------------------------------------------||-/9~-9h10p9-----9-10~-9h10p9---9-7~-7-9~-9-10~-12-10-9~--||------------9~---------------9~--------------------------||---------------------------------------------------------||---------------------------------------------------------||---------------------------------------------------------|
|------------------------------------------------------||-5~-4h5p4---4-5~-4h5p4----4-2~-2-4~-4-5~--------------||---------4~------------4~-----------------------------||------------------------------------------------------||------------------------------------------------------||------------------------------------------------------|
Do Chorus-
endRefrain-GtrI|------------------------------------------------------||------------------------------------------------------||-6--------9----------6-----------9~-------------------||-4--------7----------4-----------7~-------------------||-4--------7----------4-----------7~-------------------||-4--------7----------4-----------7~-------------------|
GtrII|--------------------------------| |--------------------------------| |-5--0-5-0-7-0-5-0-9-0-5-0-5h7---| |-5--0-5-0-7-0-5-0-9-0-5-0-5h7-5-||--------------------------------|2x|--------------------------------||--------------------------------| |--------------------------------||--------------------------------| |--------------------------------||--------------------------------| |--------------------------------|
GtrIII
|-2--0-2-0-4-0-4-0-7-0-4-0-4h5---| |-2--0-2-0-4-0-4-0-7-0-4-0-4h5-0-| |--------------------------------| |--------------------------------| |--------------------------------|2x|--------------------------------||--------------------------------| |--------------------------------||--------------------------------| |--------------------------------||--------------------------------| |--------------------------------|
Tap to rate this tab
 
# A B C D E F G H I J K L M N O P Q R S T U V W X Y Z