Alex Britti - Milano tab

-----------------------------------------------------------|-----------8---8h11---11-----------8-8-11-11---11h13-------|------8-10----------------8---8-10-------------------12h8--|-8-10-----------------------8------------------------------|-----------------------------------------------------------|-----------------------------------------------------------|
-----------------------------------------------------|--------8-8h11-11-11h8-----------8--8--11--11-11h16--|------8----------------8----8-10---------------------|-8-10---------------------8--------------------------|-----------------------------------------------------|-----------------------------------------------------|
------------------------------------------------------------------|----16----16----16----16-------------------8-9-11-----13-11-8-----|-15----15----15----15----12h10h8---------8--------10----------8-8-|---------------------------------10-8-10--------------------------|------------------------------------------------------------------|------------------------------------------------------------------|
----------------------------------------------------------------|----------------------8-8-8-------------------------------------|-(--8----10)--------8-------10-8-7h8---8---------(--8-10----8)--|-(8---10---)--8-10-------------------8---8-7-6---(8------10--)--|----------------------------------------------------------------|----------------------------------------------------------------|
-------------------------------------------------------|-----------7-8-8-----8---------------------------------|------8-10--------10---8h7-8h7--8-7--------------------|-8-10-------------------------------8-6----------------|-----------------------------------------10------------|--------------------------------------------11-10-11---|
---------------------------------------------------|---------------------------------------------------|---------------------------------------------------|---------------------------------------------------|-8h10h8--------------------------------------------|--------11-10-11-10-11-10h11-10h11-11-10h11-11-11--|
----------------------------------------|----------------------------------------|-8--8----8------------------------------|------10---10-8-------------------------|----------------10-8--------------8-----|---------------------10-11-6-8-11---11--|
-------------------------------------------------------|-------------11-13---------------------------16-16-16--|-------10-12-------12-----------------10-----15-15-15--|-10-13----------------13--13-12-10-13-----10-13-13-13--|-------------------------------------------------------|-------------------------------------------------------|
------------------------------------------------------|----16----15----16--------------16----15----16--------|-15----15----15-----12-8-----15----15----15-----12-8--|------------------------------------------------------|------------------------------------------------------|------------------------------------------------------|
-------------------------------------------------|----16----16----16---13h16--13h16--13h16--13h16--|-15----15----15------12h15--12h15--12h15--12h15--|-------------------------------------------------|-------------------------------------------------|-------------------------------------------------|
---------------------------------------------|--------11-9-8-----------------8-------------|------8--------10-8-10----8-10-----8h10------|-8-10---------------------------10------10---|---------------------------------------------|---------------------------------------------|
---------------------------------------------|---------------11-11-11-15-15-15-17-17-18----|-8-10----8-8-8-------------------------------|------10-------------------------------------|---------------------------------------------|---------------------------------------------|
Tap to rate this tab
 
# A B C D E F G H I J K L M N O P Q R S T U V W X Y Z