In Vain tab with lyrics by Alkaline Trio - Easy chords and tabs for guitar

Alkaline Trio – In Vain tab

Hey guys, I saw 2 youtube videos with this new song, and tabbed it out. Its a great song 
I can't wait for the album! Anyways, I am almost certain everything is correct. There 
be some blips, but you can figure them out.


Intro

 udududud

-55555555- |-5-5-5-5-5-5-55555555---------- /-66666666- |-6-6-6-6-6-6-66666666---------- /-77777777- x1 Strum Fast |-7-7-7-7-7-7-77777777 x 2 /-77777777- |-7-7-7-7-7-7-77777777---------- /---------- |------------------------------- /---------- |------------------------------- /
Verse
d d d d d d d d /d d d d-5-5-5-5---------------------------------- / \-6-6-6-6---------------------------------- / \-7-7-7-7-10-10-10-10-/3-3-3-3-2-2-2-2 \-- / x2-7-7-7-7-10-10-10-10-/3-3-3-3-2-2-2-2 ---- /---------8--8--8--8--/1-1-1-1-0-0-0-0----- /------------------------------------------ /
Break
-----------------------------------------------55555555-|-----------------------------------------------66666666-|-7-7-----2-2-----3-3---------------------------77777777-|-7-7-----2-2-----3-3----3-3----7-7-7-7-7-7-7-7-77777777-|-5-5-----0-0-----1-1----3-3----7-7-7-7-7-7-7-7----------|------------------------1-1----5-5-5-5-5-5-5-5----------|
Verse
d d d d d d d d /d d d d-5-5-5-5---------------------------------- / \-6-6-6-6---------------------------------- / \-7-7-7-7-10-10-10-10-/3-3-3-3-2-2-2-2 \-- / x2-7-7-7-7-10-10-10-10-/3-3-3-3-2-2-2-2 ---- /---------8--8--8--8--/1-1-1-1-0-0-0-0----- /------------------------------------------ /
Chorus
---------------------------------\------ /---------------------------------------- / \-7-7-7-7-3-3-3-3----------------- \---- / x4-7-7-7-7-3-3-3-3-3-3-3-3-7-7-7-7- ------ /-5-5-5-5-1-1-1-1-3-3-3-3-7-7-7-7-------- /-----------------1-1-1-1-5-5-5-5-------- /
Chorus continue " I don't wanna be the one to take his place, in vain"
------------------------------------------55555555-|------------------------------------------66666666-|-7-7-7-5-5-5-3-3-3------------------------77777777-|-7-7-7-5-5-5-3-3-3-3-3-3--7-7-7-7-7-7-7-7-77777777-|-5-5-5-3-3-3-1-1-1-3-3-3--7-7-7-7-7-7-7-7----------|-------------------1-1-1--5-5-5-5-5-5-5-5----------|
Intro udududud
-55555555- |-5-5-5-5-5-5-55555555---------- /-66666666- |-6-6-6-6-6-6-66666666---------- /-77777777- x1 Strum Fast |-7-7-7-7-7-7-77777777 x 2 /-77777777- |-7-7-7-7-7-7-77777777---------- /---------- |------------------------------- /---------- |------------------------------- /
Verse
d d d d d d d d /d d d d-5-5-5-5---------------------------------- / \-6-6-6-6---------------------------------- / \-7-7-7-7-10-10-10-10-/3-3-3-3-2-2-2-2 \-- / x2-7-7-7-7-10-10-10-10-/3-3-3-3-2-2-2-2 ---- /---------8--8--8--8--/1-1-1-1-0-0-0-0----- /------------------------------------------ /
Chorus
---------------------------------\------ /---------------------------------------- / \-7-7-7-7-3-3-3-3----------------- \---- / x4-7-7-7-7-3-3-3-3-3-3-3-3-7-7-7-7- ------ /-5-5-5-5-1-1-1-1-3-3-3-3-7-7-7-7-------- /-----------------1-1-1-1-5-5-5-5-------- /
Chorus continue " I don't wanna be the one to take his place, in vain"
-------------------------| ----------------55555555-|-------------------------| ----------------66666666-|-7-7-7-5-5-5-3-3-3-------| ----------------77777777-|-7-7-7-5-5-5-3-3-3-3-3-3-| x3 7-7-7-7-7-7-7-7-77777777-|-5-5-5-3-3-3-1-1-1-3-3-3-| 7-7-7-7-7-7-7-7----------|-------------------1-1-1-| 5-5-5-5-5-5-5-5----------|
Bridge Matt Has a Phaser+Wah effect and just strums the same chord a million times
-5555555555555555555555555555555555555555555555555--6666666666666666666666666666666666666666666666666--7777777777777777777777777777777777777777777777777--7777777777777777777777777777777777777777777777777----------------------------------------------------|---------------------------------------------------|
Bridge Part 2
-8-8-8-6-6-6-5-5-5-6-6-5 | -5~-|-6-6-6-6-6-6-6-6-6-6-6-6 | -6~-|------------------------ x4 | Hold ----|------------------------ | ----|------------------------ | ----|------------------------ | ----|
---Silent Part Where Dan sings-- Bridge Part 2 Build Up
-8-8-8-6-6-6-5-5-5-6-6-5 | -------------------------|-6-6-6-6-6-6-6-6-6-6-6-6 | -------------------------|------------------------ x4 | -7-7-7-7-7-7-7-7---5~----|------------------------ | -7-7-7-7-7-7-7-7---5~-7~-|------------------------ | -5-5-5-5-5-5-5-5---3~-7~-|------------------------ | ----------------------5~-|
Chorus
---------------------------------\------ /---------------------------------------- / \-7-7-7-7-3-3-3-3----------------- \---- / x4-7-7-7-7-3-3-3-3-3-3-3-3-7-7-7-7- ------ /-5-5-5-5-1-1-1-1-3-3-3-3-7-7-7-7-------- /-----------------1-1-1-1-5-5-5-5-------- /
Chorus continue " I don't wanna be the one to take his place, in vain"
-------------------------| ----------------5--------|-------------------------| ----------------6--------|-7-7-7-5-5-5-3-3-3-------| ----------------7--------|-7-7-7-5-5-5-3-3-3-3-3-3-| x3 7-7-7-7-7-7-7-7-7--------|-5-5-5-3-3-3-1-1-1-3-3-3-| 7-7-7-7-7-7-7-7----------|-------------------1-1-1-| 5-5-5-5-5-5-5-5----------|
Hey, well thats it! Emails and comments go to sun.dials@hotmail.com Have fun with the song :) Its not hard :D
Please rate this tab:
x1.0