Sopla El Pampero tab with lyrics by Almafuerte - Easy chords and tabs for guitar

Almafuerte – Sopla El Pampero tab

Aca les dejo esta milonga del Tano!

E|---------------------------------5-|-----------------5-------------|B|-----------1-0-----3-1/0/1-------5-|---5-6-5-8---------8-6-5-8---6-|G|--------------2-1----------------5-|------------6------------------|D|-0/2-5-3-2-------------------------|---------------7-----------0---|A|---------0-------------------------|-------------------------------|E|----------------3----------3/5(5)--|-------------------------------|
|----------------------0-0--------------||--8/6/5---5/6---1---0-3-1-0------------||--------7----------------------2-------||---------------------------------------||--------------0/2----------------------||-----------------------------------3-2-|
|------------------------------------------------||--1-0-1--------0-1-0-1---0-0/1/2/3-3-----6/8--6-||-2-----2------2------0-------------------8/9--8-||--------3-2-1--------2-------------0------------||--------------------------------------0---------||-------0----------------------------------------|
|----------5—8-5-7----0--8-7-5-0-7/9-5---||------------------5-----------------5---||-5----------------------------------5-1-||---7----------------------------------0-||------0-------------------------------2-||------------------------------------5-0-|
|-----5-7/5---9/5----10/12-10-9/10/9---7-||----5-----5-----5---------------------7-||-4/6-------6-----6--------------------7-||--------------------------------------9-||-0-----0------------------------------9-||------------------------------------7-7-|
|-7-9-10-9-10/12-9---10-9-7-5-4-2--2----0-------------||-----------------------------------------------------||----------------9/11-9-9-7-5-4-2--2----0-------------||---------------------------------------------3/5-7---||-----------------------------------------------------||-----------0-----------------------------------------|
|--------------------------------------------------------------------||-5-------5-----7-5------5-----5-----7-5-----5-----5-----7-5-----5---||---6-------6--------6-----6-----7-------7-----7-----7-------7-----7-||-----7-------7--------7-----------6-------6-----------6-------6-----||-------0------------------------------------------------------------||-----------------------------0-------------------0------------------|
|--------------------2-0-----0-------------------------||---5-----10---------2---3-2---3/2/3---3---2---0-------||-----6--------------3---------------4---2---------2-1-||-------7------------4---------------------------------||-0------------------4---------------2---0-------------||------------5-4-3-2-2-----------------------4---2-----|
|-5-4-2--------------------------1-|---------5---7-8-7-5-||-------5-3-2--------------------3-|-5-4-3-1--5----------||-------------4-2-1--------------1-|-----------5---------||-------------------4-2-0--------3-|---------------------||-------------------------4-2-0----|-7-6-5-3-------------||----------------------------------|---------------------|
|---7----------|------8-|------------||-----8---8----|----10--|-12-10-8-10-||----------9-9-|---9----|------------||-------9---9--|--------|-9---8-8--8-||--------------|-8------|------------||-0------------|--------|------------|
|--------0-----|-3-5-3---0-1-3-1-|-1-1-1-1-3-0-1---3-||--------------|-3-----6-------1-|-1-1-3-1-1---------||-9------------|-3-------------2-|-2-1-1-1-1---------||---10---------|-5-------------3-|-3-1-1-1-----0-----||--------------|-5-------3-----3-|-3-1-1-1-----------||------8---1-2-|-3-------------1-|-1-1-1-1-----------|
DO LA RE|---------------0-|----2-|--------2--4—-5---7-||------1-------2--|---3--|------4----5--7---9-||-----0-------2---|--2---|----2---------------||------------2----|-0----|--4-----------------||-2-3----2-0------|------|--------------------||-----------------|------|--------------------|
|-----5-7/5---9/5----10/12-10-9/10/9---7-||----5-----5-----5---------------------7-||-4/6-------6-----6--------------------7-||--------------------------------------9-||-0-----0------------------------------9-||------------------------------------7-7-|
|-7-9-10-9-10/12-9---10-9-7-5-4-2--2----0-------------||-----------------------------------------------------||----------------9/11-9-9-7-5-4-2--2----0-------------||---------------------------------------------3/5-7---||-----------------------------------------------------||-----------0-----------------------------------------|
|--------------------------------------------------------------------||-5-------5-----7-5------9-5---5-----7-5-----9-5---5-----7-5-----9-5-||---6-------6--------6-----------7-------7-----------7-------7-------||-----7-------7--------7-----------6-------6-----------6-------6-----||-------0------------------------------------------------------------||-----------------------------0-------------------0------------------|
|--------------------2-0-----0------------------||---5-----10---------2---3-2---3/2/3--3-5-7-10--||-----6--------------3---------------4-6-7-9----||-------7------------4--------------------------||-0------------------4---------------2-4-5-7----||------------5-4-3-2-2--------------------------|
|-------------------7-9-10-12-14--12-14-15-17-|---5-||-9-10-9-7---7-9-10---------------------------|---2-||----------9----------------------------------|-1-2-||---------------------------------------------|-0-2-||---------------------------------------------|-2-0-|
Bueno esta es mi versión un poco mejorada a la otra Saludos!!! Aguante la renga y almafuerte
Please rate this tab:
x1.0