Alter Bridge - Cry A River tab

Band  - Alter Bridge
Song  - Cry A River
Album - Fortress
Tab   - Sangbraten
_____________________________________________________

Intro

D#||------------------------------------------------|A#||------------------------------------------------|F#||------------------------------------------------|C#||----------12-------15b--------------------------|G#||----------------------------------12------------|C#||--0/--13-----13-12-------0--12-13----13-12--10--|
-----------------------------------------------||-----------------------------------------------||----------------------------------------------*||----------12-------15b------------------------*||----------------------------------12-----------||--0/--13-----13-12-------0--12-13----13-12-----||x2
Verse
------------------------------------|------------------------------------|------------------------------------|------------------------------------|------------------------------------|------------------------------------|----------12-------15b--------------|----------12-------15b--------------|------------------------------------|------------------------------------|--0/--13-----13-12-------0--12--10--|--0/--13-----13-12-------0--12--13--|
-----------------------------------|----------------------------------|-----------------------------------|----------------------------------|-----------------------------------|----------------------------------|----------12-------15b-------------|----------12-------15b------1--0--|-----------------------------------|----------------------------1--0--|--0/--13-----13-12-------0--10--8--|--0/--13-----13-12-------0--1--0--|
-------------------------------|---------------------------------|-------------------------------|---------------------------------|-----------------10------9-----|-----------------10------10--12--|----------10-------------------|----------10---------------------|-------------8-7--8------7-----|-------------8-7--8-------8--10--|--0/--8-8-------------0-----8--|--0/--8-8-------------0----------|
------------------------------------|------------------------------------|------------------------------------|------------------------------------|------------------------------------|------------------------------------|----------12-------15b--------------|----------12----------8-8----10-10--|------------------------------------|----------------------8-8----10-10--|--0/--13-----13-12-------0--12--10--|--0/--13-----13-12----8-8----10-10--|x2*
*First Verse Ending
--------------------------------|--------------------------------|--------------------------------|----------12-------15b----------|--------------------------------|--0/--13-----13-12--------------|
Chorus
----------------------------------|----------------------------------|----------------------------------|----------------------------------|--12--12--12--11--11--11--11--11--|--11--11--11--11--11--11--11--11--|---x---x---x---x---x---x---x---x--|---x---x---x---x---x---x---x---x--|--10--10--10---9---9---9---9---9--|---9---9---9---9---9---9---9---9--|---0---0---0---0---0---0---0---0--|---0---0---0---0---0---0---0---0--|
----------------------------------|----------------------------------|----------------------------------|----------------------------------|--12--12--12--12--12--12--12--12--|--12--12--12--12--12--12--12--12--|---x---x---x---x---x---x---x---x--|---x---x---x---x---x---x---x---x--|--10--10--10--10--10--10--10--10--|--10--10--10--10--10--10--10--10--|---0---0---0---0---0---0---0---0--|---0---0---0---0---0---0---0---0--|
----------------------------------|--------------------------|----------------------------------|--------------------------|--10--10--10--10--10--10--10--10--|--9--9--9--9--9--9--9--9--|---x---x---x---x---x---x---x---x--|--x--x--x--x--x--x--x--x--|---8---8---8---8---8---8---8---8--|--7--7--7--7--7--7--7--7--|---0---0---0---0---0---0---0---0--|--0--0--0--0--0--0--0--0--|x2
Bridge
|--------------------|---------------------------|-------------------||--------------------|---------------------------|-------------------||*-------------------|-----7br-------5--5--5--5--|-------------------||*--0----------------|--L------------------------|--0----------------||---5----------------|--L--5brb------3--3--3--3--|--5----------------||---0----------------|--L------------------------|--0----------------|
----------------------------| |-----------------------------|----------------------------| |-----------------------------|-----7br-------4--4--4--4--*| |*----------------------------|--L------------------------*| |*----------------------------|--L--5brb------2--2--2--2---| |-----------------------------|--L-------------------------|x2|---0-0------0-0----0---0-0---|
---------------------------|----------------------------|---------------------------|----------------------------|-----7br-------5--5--5--5--|----------------------------|---------------------------|----------------------------|-----5brb------3--3--3--3--|----------------------------|--L------------------------|--0-0------0-0----0---0-0---|
(1° Ending) (2°Ending)
----------------------------| |--------------------------|----------------------------| |--------------------------|-----7br-------4--4--4--4--*| |-----7br-------5----------|---------------------------*| |--------------------------|-----5brb------2--2--2--2---| |-----5brb------3------0\--|--L-------------------------|x2|----------------------0\--|
PM PM PM PM PM PM PM|---------------------------------||---------------------------------||*--------------------------------||*--------------------------------||---------------------------------||---0--0------0--0----0----0--0---|
------------------------------------------------|------------------------------------------------|------------------------------------------------|------------------------------------------------|--------------10---------------12-----------10--|--L--0-10h-13-----13--0-10h-13-----0-10h-13-----|
PM PM PM PM PM PM PM--------------------------------|--------------------------------|--------------------------------|--------------------------------|--------------------------------|--0--0------0--0----0----0--0---|
(1°Ending)
-------------------------------------------------||-------------------------------------------------||------------------------------------------------*||------------------------------------------------*||--------------10---------------12-----------13---||--L--0-10h-13-----13--0-10h-13-----0-10h-13------||x2
(2° Ending)
--------------------------------------------------------------------------|--------------------------------------------------------------------------|--------------------------------------------------------------------------|--------------------------------------------------------------------------|--------------10---------------12-----------13-----------12-----------10--|--L--0-10h-13-----13--0-10h-13-----0-10h-13-----0-10h-13-----0-10h-13-----|
Solo Rythm Guitar
----------------------------------|----------------------------------|----------------------------------|----------------------------------|--12--12--12--11--11--11--11--11--|--11--11--11--11--11--11--11--11--|---x---x---x---x---x---x---x---x--|---x---x---x---x---x---x---x---x--|--10--10--10---9---9---9---9---9--|---9---9---9---9---9---9---9---9--|---0---0---0---0---0---0---0---0--|---0---0---0---0---0---0---0---0--|
--------------------------|--------------------------|--------------------------|--------------------------|--5--5--5--5--5--5--5--5--|--5--5--5--5--5--5--5--5--|--5--5--5--5--5--5--5--5--|--5--5--5--5--5--5--5--5--|--3--3--3--3--3--3--3--3--|--3--3--3--3--3--3--3--3--|--------------------------|--------------------------|
--------------------------|--------------------------|--------------------------|--------------------------|--3--3--3--3--3--3--3--3--|--2--2--2--2--2--2--2--2--|--3--3--3--3--3--3--3--3--|--2--2--2--2--2--2--2--2--|--1--1--1--1--1--1--1--1--|--0--0--0--0--0--0--0--0--|--------------------------|--------------------------|
Solo Lead Guitar
|--20b---20b---20b--------22b--||------------------------------||------------------------------||------------------------------||------------------------------||------------------------------|
--L----22b--22b---------------13-|--L-----------------------------|---------------------13-15-17----|------17-15-13-17-15----L--13---|---------------------------------|--------------------------------|---------------------------------|--------------------------------|---------------------------------|--------------------------------|---------------------------------|--------------------------------|
--13--------------------17brb----L--|-------17-15-13-17-15---------------|------------------------------------|------------------------------------|------------------------------------|------------------------------------|
--22-17----------------17-22-17----------------17-|--------18----------15----------18----------15----|-----------17----17----------------17----17-------|--------------19----------------------19----------|--------------------------------------------------|--------------------------------------------------|
------------------------------------------------|--18-15-18-15----15-----------------------------|--------------17----17-14----14-----------------|--------------------------17----17-15-17--17-15-|------------------------------------------------|------------------------------------------------|
---------------------------------|--13----13----13----L----L-------|--12b---12b---12b---L----L-12-10-|---------------------------------|---------------------------------|---------------------------------|
------------------------------------------------|---------------------10-8-----------------------|--12-10b--12-10b--12------10-7-----------7-10-7-|--------------------------------10-7--10--------|------------------------------------------------|------------------------------------------------|
|------------------------------||------------------------------||--<>10~---7---10-9~--------L--||------------------------------||------------------------------||------------------------------|
--------8h-10p-8---12--------------|------------------------13---------|--9s-10----------9---------12------|-----------------------------------|-----------------------------------|-----------------------------------|
--17-13----------13-17-13----------|--------15----15----------15----15-|-----------14----------------14----|-----------------------------------|-----------------------------------|-----------------------------------|
13h-17p-13-12h-13-12p-10-12p-10-8h-10-8p-6-|-------------------------------------------|-------------------------------------------|-------------------------------------------|-------------------------------------------|-------------------------------------------|
--5h-6h-8p-6p-5----------------------|-----------------8p-6p-5h-6h-8p-6p-5-|-------------------------------------|-------------------------------------|-------------------------------------|-------------------------------------|
--------------------------------------------|--------------------------------------------|--7p-5p-3h-5h-7p-5p-3-----------------------|-----------------------7p-5p-3h-5h-7p-5p-3--|--------------------------------------------|--------------------------------------------|
-------------------------|-------------------------|-------------------------|-------------------------|--<>5~-------------------|-------------------------|_____________________________________________
Tablature Legend ---------------- L - tied note x - dead note g - grace note (n) - ghost note > - accentuded note NH - natural harmonic AH - artificial harmonic TH - tapped harmonic SH - semi harmonic PH - pitch harmonic h - hammer on p - pull off b - bend br - bendRelease pb - preBend pbr - preBendRelease brb - bendReleaseBend \n/ - tremolo bar dip \n - tremolo bar dive -/n - tremolo bar Release up /n\ - tremolo bar inverted dip /n - tremolo bar return -\n - tremolo bar Release down S - shift slide s - legato slide / - slide into from below or out of upwards \ - slide into from above or out of downwards ~ - vibrato W - wide vibrato tr - trill TP - tremolo picking T - tapping S - slap P - pop < - fade in ^ - brush up v - brush down
Tap to rate this tab
 
# A B C D E F G H I J K L M N O P Q R S T U V W X Y Z