Amy Winehouse - You Know Im No Good tab version 4

I just put this together for playing acoustically,
also where the upstrokes are,
they can be played as downstrokes also,
I just put them as upstrokes to compliment the style of the song.

IT MAY LOOK COMPLICATED BUT REMEMBER THE CHORDS
(AT THE START OF THE SECTION) AND YOU'LL GET IT IN NO TIME.

^ - upstroke
v - downstroke
 . - staccato

Verse 1 - Dm|Gm|A|Dm

. . . .|---------1--1-----1-----------3--3-----3----||--------3---3-----2----------3---3-----3----||-------2----2-----3---------0----0-----0----||------0--------------------0----------------||-----0--------------------1-----------------||--0------------0-------3------------3-------| ^ ^ ^ ^
. . . .|---------0--0-----0-----------1--1-----1----||--------2---2-----2----------3---3-----3----||-------2----2-----2---------2----2-----2----||------2--------------------0----------------||-----0--------------------0-----------------||--0------------0-------0------------0-------| ^ ^ ^ ^
Bridge 1 - Gm|E7|F|E7|A
. . . .|---------3--3-----3-----------3--3-----3----||--------3---3-----3----------3---3-----3----||-------0----0-----0---------0----0-----0----||------0--------------------0----------------||-----1--------------------1-----------------||--3------------3-------3------------3-------| ^ ^ ^ ^
. . . .|---------0--0-----0-----------0--0-----0----||--------0---0-----0----------0---0-----0----||-------1----1-----1---------1----1-----1----||------0--------------------0----------------||-----2--------------------2-----------------||--0------------0-------0------------0-------| ^ ^ ^ ^
. . . . . . . . . . . . . . .|--0-0-0-0-0-0-0-0--0-0-0-0--0-0-0-----------||--1-1-1-1-1-1-1-1--0-0-0-0--2-2-2-----------||--2-2-2-2-2-2-2-2--1-1-1-1--2-2-2-----------||--3-3-3-3-3-3-3-3--0-0-0-0--2-2-2-----------||-------------------2-2-2-2--0-0-0-----------||--------------------------------------------| ^ ^ ^
Chorus 1 - Dm|Am|E7|Am - You can play Variation 1 here
. . . . ____|---------1--1-----1-----------0--0-----0----| ||--------3---3-----2----------1---1-----1----| ||-------2----2-----3---------2----2-----2----| ||------0--------------------2----------------| ||-----0--------------------0-----------------| ||--0------------0-------0------------0-------| |
^ ^ ^ ^ | |-------- X 2
. . . . ||---------0--0-----0-----------0--0-----0----| ||--------0---0-----0----------1---1-----1----| ||-------1----1-----1---------2----2-----2----| ||------0--------------------2----------------| ||-----2--------------------0-----------------| ||--0------------0-------0------------0-------| | ^ ^ ^ ^ ____|
. . ..... . ...|--x-x-xxxxx-x-xxx---------------------------| I tabbed out the horns part for guitar|--x-x-xxxxx-x-xxx---------------------------| because it adds that extra bit to it, you|--x-x-xxxxx-x-xxx---------------------------| don't have to play it, just keep playing|--x-x-xxxxx-x-xxx---------------------------| the strings whilst muting them.|--x-x-xxxxx-x-xxx----0-2-3-2p0--------------| (when you pull-off to the 0, kind of|--x-x-xxxxx-x-xxx--------------0-1~---------| mute the strings before the open E) v v v^v^v v v^v
Verse 2 - Dm|Gm|A|Dm - You can play Variation 1 here
. . . . ____|---------1--1-----1-----------3--3-----3----| ||--------3---3-----2----------3---3-----3----| ||-------2----2-----3---------0----0-----0----| ||------0--------------------0----------------| ||-----0--------------------1-----------------| ||--0------------0-------3------------3-------| |
^ ^ ^ ^ | |-------- X 2
. . . . ||---------0--0-----0-----------1--1-----1----| ||--------2---2-----2----------3---3-----3----| ||-------2----2-----2---------2----2-----2----| ||------2--------------------0----------------| ||-----0--------------------0-----------------| ||--0------------0-------0------------0-------| | ^ ^ ^ ^ ____|
Bridge 2 - Gm|E7|F|E7|A
. . . .|---------3--3-----3-----------3--3-----3----||--------3---3-----3----------3---3-----3----||-------0----0-----0---------0----0-----0----||------0--------------------0----------------||-----1--------------------1-----------------||--3------------3-------3------------3-------| ^ ^ ^ ^
. . . .|---------0--0-----0-----------0--0-----0----||--------0---0-----0----------0---0-----0----||-------1----1-----1---------1----1-----1----||------0--------------------0----------------||-----2--------------------2-----------------||--0------------0-------0------------0-------| ^ ^ ^ ^
. . . . . . . . . . . . . . .|--0-0-0-0-0-0-0-0--0-0-0-0--0-0-0-----------||--1-1-1-1-1-1-1-1--0-0-0-0--2-2-2-----------||--2-2-2-2-2-2-2-2--1-1-1-1--2-2-2-----------||--3-3-3-3-3-3-3-3--0-0-0-0--2-2-2-----------||-------------------2-2-2-2--0-0-0-----------||--------------------------------------------| ^ ^ ^
Chorus 2 - Dm|Am|E7|Am - You can play Variation 1 here
. . . .|---------1--1-----1-----------0--0-----0----||--------3---3-----2----------1---1-----1----||-------2----2-----3---------2----2-----2----||------0--------------------2----------------||-----0--------------------0-----------------||--0------------0-------0------------0-------| ^ ^ ^ ^
. .|---------0--0-----0-------------------------||--------0---0-----0-------------------------||-------1----1-----1-------------------------||------0-------------------------------------||-----2-----------------0-2-3-2p0------------||--0------------0-----------------0-1~-------| ^ ^
. . . .|---------1--1-----1-----------0--0-----0----||--------3---3-----2----------1---1-----1----||-------2----2-----3---------2----2-----2----||------0--------------------2----------------||-----0--------------------0-----------------||--0------------0-------0------------0-------| ^ ^ ^ ^
. .|---------0--0-----0-------------------------||--------0---0-----0-------------------------||-------1----1-----1-------------------------||------0-------------------------------------||-----2--------------------------------------||--0------------0----------------------------| ^ ^
Solo/Middle 8 -
|------------------------------------------------||------------------------------------------------||------------------------------------------------||------------------------------------------------||--0-2-3-2p0---5~--6-5-3-0~--0-3-0-7~--6-5-3-0~--||------------0~----------------------------------|
|------------------------------------------------||------------------------------------------------||------------------------------------------------||------------------------------------------------||--0-3-0-5~--6-5-3-0~--0-3-0-7~--6-5-3-0~--------||------------------------------------------------|
|--------------||--------------||--------------||--------------||--0-3-0-5~----||--------------|
Verse 3 - Dm|Gm|A|Dm - First time in a sort of arpeggio form
|-------1~-------------3~------||------3~-------------3~-------||-----2~-------------0~--------||----0~-------------0~---------||---0~-----------1-1~----------||--0~---------3~--3~-----------|
|-----------0~------------1~---||----------2~------------3~----||---------2~------------2~-----||--------2~----------0-0~------||-----0-0~--------0~--0~-------||--0~--0~------------0~--------|
. . . .|---------1--1-----1-----------3--3-----3----||--------3---3-----2----------3---3-----3----||-------2----2-----3---------0----0-----0----||------0--------------------0----------------||-----0--------------------1-----------------||--0------------0-------3------------3-------| ^ ^ ^ ^
. . . .|---------0--0-----0-----------1--1-----1----||--------2---2-----2----------3---3-----3----||-------2----2-----2---------2----2-----2----||------2--------------------0----------------||-----0--------------------0-----------------||--0------------0-------0------------0-------| ^ ^ ^ ^
Bridge 3 - Gm|E7|F|E7|A
. . . .|---------3--3-----3-----------3--3-----3----||--------3---3-----3----------3---3-----3----||-------0----0-----0---------0----0-----0----||------0--------------------0----------------||-----1--------------------1-----------------||--3------------3-------3------------3-------| ^ ^ ^ ^
. . . .|---------0--0-----0-----------0--0-----0----||--------0---0-----0----------0---0-----0----||-------1----1-----1---------1----1-----1----||------0--------------------0----------------||-----2--------------------2-----------------||--0------------0-------0------------0-------| ^ ^ ^ ^
. . . . . . . . . . . . . . .|--0-0-0-0-0-0-0-0--0-0-0-0--0-0-0-----------||--1-1-1-1-1-1-1-1--0-0-0-0--2-2-2-----------||--2-2-2-2-2-2-2-2--1-1-1-1--2-2-2-----------||--3-3-3-3-3-3-3-3--0-0-0-0--2-2-2-----------||-------------------2-2-2-2--0-0-0-----------||--------------------------------------------| ^ ^ ^
Chorus 4 - Dm|Am|E7|Am - You can play Variation 1 here (I separated the last 2 Choruses for ease of reading)
. . . .|---------1--1-----1-----------0--0-----0----||--------3---3-----2----------1---1-----1----||-------2----2-----3---------2----2-----2----||------0--------------------2----------------||-----0--------------------0-----------------||--0------------0-------0------------0-------| ^ ^ ^ ^
. . . .|---------0--0-----0-----------0--0-----0----||--------0---0-----0----------1---1-----1----||-------1----1-----1---------2----2-----2----||------0--------------------2----------------||-----2--------------------0-----------------||--0------------0-------0------------0-------| ^ ^ ^ ^
. . . .|---------1--1-----1-----------0--0-----0----||--------3---3-----2----------1---1-----1----||-------2----2-----3---------2----2-----2----||------0--------------------2----------------||-----0--------------------0-----------------||--0------------0-------0------------0-------| ^ ^ ^ ^
. . .|---------0--0-----0----0--------------------||--------0---0-----0----1--------------------||-------1----1-----1----2--------------------||------0----------------2--------------------||-----2-----------------0--0-2-3-2p0---4~----||--0------------0-------0------------0-------| ^ ^ ^
Chorus 5 - Dm|Am|E7|Am - You can play Variation 1 here
. . . .|---------1--1-----1-----------0--0-----0----||--------3---3-----2----------1---1-----1----||-------2----2-----3---------2----2-----2----||------0--------------------2----------------||-----0--------------------0-----------------||--0------------0-------0------------0-------| ^ ^ ^ ^
. . . .|---------0--0-----0-----------0--0-----0----||--------0---0-----0----------1---1-----1----||-------1----1-----1---------2----2-----2----||------0--------------------2----------------||-----2--------------------0-----------------||--0------------0-------0------------0-------| ^ ^ ^ ^
. . . .|---------1--1-----1-----------0--0-----0----||--------3---3-----2----------1---1-----1----||-------2----2-----3---------2----2-----2----||------0--------------------2----------------||-----0--------------------0-----------------||--0------------0-------0------------0-------| ^ ^ ^ ^
. . . .|---------0--0-----0-----------0--0-----0----||--------0---0-----0----------1---1-----1----||-------1----1-----1---------2----2-----2----||------0--------------------2----------------||-----2--------------------0-----------------||--0------------0-------0------------0-------| ^ ^ ^ ^
VARIATION 1 - *FOR EXAMPLE* EXAMPLE - You could play this in the Chorus instead
. .|---------1~---1-----------0~---0-----||--------3~----2----------1~----1-----||-------2~-----3---------2~-----2-----||----0~-----------------2~------2-----||--0---------0-------0~---------------||------------------0----------0-------|
^ ^ . .|----------0~---0-----------0~---0----||---------0~----0----------1~----1----||--------1~-----1---------2~-----2----||-------0~------0--------2~------2----||----2~---------2-----0~--------------||--0----------0-----0----------0------| ^ ^
The basic principle behind Variation 1 is that instead of the arpeggio, you basically just hit the top two notes of the chord, kind of like a mariachi band vibe/spanish guitar vibe. It goes for any part of the song where it says you can play variation 1 there also, obviously.
Tap to rate this tab
 
# A B C D E F G H I J K L M N O P Q R S T U V W X Y Z