Anamanaguchi - Another Winter tab version 1

This is the best I could do, I'm aware that the tapping bit, and the bit before that are 
but they are the best I can currently make out, I'll update with the correct notes if I 
it out, if you find a problem, pm me, and I'll correct it, credit will be given


-----------------|---2-----2-----5-|-4---4-----4-----|-------2-----2---|-----------------|-----------------|
------------------------|----2-----2-----5-7-2-0-|--4---4-----4-----------|4-------2-----2---------|------------------------|------------------------|
---0-----0---4-7-9---------------|-2---2-0---2---------9-9-9-10-12-|-------------------9-------------|---------------------------------|---------------------------------|---------------------------------|
---------------------------------------10-|-7-5-7-9-7-9-10-9-10-12-10-12-14-12-14----|------------------------------------------|------------------------------------------|------------------------------------------|------------------------------------------|
-12-10-12-14-12-14-16-14-16-17-16-17-19-17-19-21-|-------------------------------------------------|-------------------------------------------------|-------------------------------------------------|-------------------------------------------------|-------------------------------------------------|
Starkandco's Another Winter Tab http://profile.ultimate-guitar.com/Starkandco/
--------------------------------|-9/0-7-9-10-9-------------------|--------------6-4-2-4-6-7-6-2-4-|--------------------------------|--------------------------------|--------------------------------|
--------------------------------|-----10-12-14-17-14-19-21-14----|-7-9----------------------------|--------------------------------|--------------------------------|--------------------------------|
----------------|-14-10-12-14-10-|----------------|----------------|----------------|----------------|
----------------|-14-15-14-10-12-|----------------|----------------|----------------|----------------|
-------------------|-14-10-12-14-17-14-|-------------------|-------------------|-------------------|-------------------|
----------------17-16-|-14-15-14-10-12-------|----------------------|----------------------|----------------------|
-------7-9-7-9-11------|---7-9-----------------|-7---------------------| X2-----------------------|-----------------------|-----------------------|
-12------------------------------------------|----14-12-10-12-14-12-10-12-14-12-10-12-10---|-------------------------------------------9-|---------------------------------------------|---------------------------------------------|---------------------------------------------|
T-14-12-9--------| x8----------------|----------------|----------------|----------------|----------------|----------------|
----------17-19-21-----|----17-19--------------|-17--------------------|-----------------------|-----------------------|------------------ x 2-|
-------7-9-7-9-11------|---7-9-----------------|-7---------------------| X2-----------------------|-----------------------|-----------------------|
-12------------------------------------------|----14-12-10-12-14-12-10-12-14-12-10-12-10---|-------------------------------------------9-|---------------------------------------------|---------------------------------------------|---------------------------------------------|
T-14-12-9-x8---21-|-----------------|-----------------|-----------------|-----------------|-----------------|-----------------|
Repeat!
Tap to rate this tab
 
# A B C D E F G H I J K L M N O P Q R S T U V W X Y Z