Quicksilver tab with lyrics by Andrew York - Easy chords and tabs for guitar

Andrew York – Quicksilver tab

Quicksilver - Andrew York (1958-)
1st version - (anon)
2nd version - by Scott Gingerich (2005)

******************************************************************************

Quicksilver - Andrew York

E||--------2-5--5h9h5-2-------|--------0-4--4h7-4h0-------|B||------2--------------2-----|------0--------------0-----|G||----2------------------2---|----1------------------1---|D||--4----------------------4-|--2----------------------2-|A||---------------------------|---------------------------|E||---------------------------|---------------------------|
------------4-7-10-9-7------|-----9-14---------------------------|------0-3-6------------10-9-|--10---------14----10-------9-10-11-|----1-----------------------|----------14----11-------11---------|--3-------------------------|----------------------11------------|----------------------------|------------------------------------|----------------------------|------------------------------------|
-----------------10-14-12-10----------|---------------12-10-9---------|--12----------12-------------14-12-10-|--9-------9-12---------12-10-9-|-----11----11-------------------------|----9---9----------------------|--------12----------------------------|------9------------------------|--------------------------------------|-------------------------------|--------------------------------------|-------------------------------|
---------------9-10----9---------|------------------------------|--10--------10------12---10-9----|------------------------------|-----9----9-------------------11-|--10--------------------------|-------11------------------------|-----11----11---6---2---------|---------------------------------|--------11----8---4-----2-0---|---------------------------------|----------------------4-----4-|
--------------------------|--------------------------|--------------------2-0---|--------------------0-----|----------1-----1-2-----2-|------------------1---2-1-|--------3---2-3-----------|--------0-4-0-2-4---------|------4-------------------|------2-------------------|--2h5---------------------|--0h4---------------------|
--------------------------|------2-4-5-4-2---------0-|--------------0-3-2-0-----|----2-----------2-----2---|------------1---------2-1-|--2---------------2h4-----|--------0-3---------------|--------------------------|------2-------------------|--------------------------|--1h4---------------------|--------------------------|
------2/--7---10/---7/--2---|------0---4/--7/--10/---7/--|--3-----3---7----12---7---3-|--0-----0---5---9----12---9-|----4-----------------------|----1-----------------------|----------------------------|----------------------------|----------------------------|----------------------------|----------------------------|----------------------------|
--9----5---0---------------|------------------4-5-7-9-|----10---5-----2-----------|--------0-3h0---6---------|-------------6---2-2-------|------1-------6-----------|---------------------2-----|----3---------------------|-----------------------0h2-|--4-----------------------|---------------------------|--------------------------|
----------9---------9--------7-|--------7-------7-------7-|--10-9------10-9------10-9-7---|--9-7-----9-7-----9-7-----|-------11--------11------------|------9-------9-------9---|-------------------------------|--------------------------|-------------------------------|--------------------------|-------------------------------|--------------------------|
---------7--------10-7------7-|--9------9-14------------------9-|--9-7------9-7---------10-9---|----7-10------14-------9-10-12---|------10-------10-------------|-----------------14-11-----------|------------------------------|---------------------------------|------------------------------|---------------------------------|------------------------------|---------------------------------|
--------2-7--7-----------|-----------12-16--16h12-12---------|--3-0h3--------7-7-----0-|--12----12-----------------12-12/9-|-------------------7-7---|-----13----------------------------|-------------------------|-----------------------------------|-------------------------|-----------------------------------|-------------------------|-----------------------------------|
-----0----9-12--12-9-9---------|------------------------|--10---10--------------10-10---|--9----7---6---3---2----|-----------------------------8-|----10---5---6---2-1----|-------------------------------|-------------------3----|-------------------------------|------------------------|-------------------------------|------------------------|
-------------14--------------------|------------12-----------------|--10---14----------14----10---7-10-|--9---12---------12----9-----7-|-----------------------------------|---------------------------9---|----------------11-----------------|---------------9---------------|-----9----12----------12----9------|----7----11---------11---7-----|-----------------------------------|-------------------------------|
------------10------------------|------------------14----17----14----|--9---12---------12----9------9-|-------10---14----------------------|---------------------------10---|--11--------------------------------|---------------9----------------|---------------------11----16----11-|----8----11---------11---8------|----------9----12-------------------|--------------------------------|-----9------------------------------|
--10-------------------10---14----|--12---------------------7---|-------12---------12--------------|-------12----9-------9-------|------------11--------------------|-----------------9-----------|-----9--------------------9----12-|-----9---------------------6-|----------9----------9------------|----------11---7-------7-----|---------------10-----------------|-------------------7---------|
--9--------9---12----17----12----|--13----10---9---7---5---4---|------10-------------------------|-----------------------------|---------------------------------|-----------------------------|----7--------7----11----14----11-|-----12----9---7---6---4---3-|---------7-----------------------|-----------------------------|---------------------------------|-----------------------------|
----------14-14--14h9------------|--------12-12h-12------0-----|-------10-------------10---------|------9-----------12-9-------|-------------------------11------|-----------------------------|----11----------------------11---|----9--------------------9---|--9----------------------------9-|--7------------------------7-|---------------------------------|-----------------------------|
--------13-13--13--------------|----------14-14--14----9---------|------9-----------12-----------|-------10-----------10------10---|---------------------13-10-----|-------------------------11------|----9----------------------9---|----11---------------------------|--8--------------------------8-|--9----------------------------9-|-------------------------------|---------------------------------|
-----10-14----10-------------------|----7-12---7----------------|--12-------12-------12-------0-----|--9------9-----9-------0----|-----------------11-------11---7---|-------------9-----9--------|-----------------------12--------7-|-----------------9---6---12-|-----------------------------------|----------------------------|-----------------------------------|----------------------------|
-----9-12----9----------------|----7-9---3---0-----------|--10------10-----10---------5-|--8-----6---2---0-2---0---|---------------9----6-9---6---|--------------------0-----|------------------------7-----|------------------------3-|------------------------------|--------------------------|------------------------------|--------------------------|
------5-14-14----------9----------|--5-------2---------------|--------------14---------10-------|----7-------2-----2-------|----6------------14h11------11----|------6-------2-----2-----|--4----------------------------11-|--------7-------4-----4---|----------------------------------|------------------------4-|----------------------------------|--------------------------|
-------------------||-------------------||--2----------------||----4--------------||------4-0----------||----------2--------||
****************************************************************************** ****************************************************************************** "Quicksilver" - Andrew York tabbed by Scott Gingerich - January 16th, 2005 - scott_gingerich@hotmail.com 3/4 time: quickly (personal interpretation)
|--------5--5h9p5----------|-------0-4-4h7p4---------|-----------4-7-10-9-7-----||------7----------7--------|------------------5------|---------6-----------10-9-||----6--------------6------|-----6--------------6----|-----4-7------------------||--7------------------7----|---6------------------6--|---6----------------------||9----------------------9--|-7----------------------7|-8------------------------||--------------------------|-------------------------|--------------------------|
|------14----------------------------|----------------10-14-12-10-9-------||10-14----10-14----------------10-11-|-12----------12---------------12----||---------------11-14----11-13-------|----11----11---------------------10-||---------------------11-------------|-------12---------------------------||------------------------------------|------------------------------------||------------------------------------|------------------------------------|
|--------------12-10-9------|--------------9-10----9----9----||-9-------9-12---------12-9-|-10--------10------12---10---11-||---9---9-------------------|----9----9----------------------||-----9---------------------|------11------------------------||---------------------------|--------------------------------||---------------------------|--------------------------------|
|-----------------------------|------------------------|------------------------||-----------------------------|-------------------2-0--|------------------0-----||-10--------------------------|---------1-----1-2-----2|----------------1---2-1-||----11----11---6---3---------|-------3---3-4----------|------0h4p0-2-4---------||-------11----8---4-----2-0---|---0-4------------------|----2-------------------||---------------------4-----4-|-2----------------------|0h4---------------------|
|-------------------------|-------------------------|-----2-4-5-4-2---------0-||-------------------0-----|-------------0-3-2-0-----|---2-----------2---0-2---||-----------------1---2-1-|-----------1---------2-1-|-2---------------2-------||-------0h4p0-2-4---------|-------0-3---------------|-------------------------||-----2-------------------|-----2-------------------|-------------------------||-1h4---------------------|-1h4---------------------|-------------------------|
|-----2---7---10----7---2---|-----0---4-0-7-4-10-7---|9--------0----------------||-3-----3---7----12---7---3-|-0-----0--------------9-|--10-9-----2-2------------||---4-----------------------|---1--------------------|-------9-------2-2--------||---------------------------|------------------------|-------------------2------||---------------------------|------------------------|---------------------0h2--||---------------------------|------------------------|--------------------------|
|-----------------4-5-7-9-|-------9--------9--------7-|-4-----7-4-----7-4-----7-||-------0-3-0---6---------|10-9-7---10-9-7---10-9-7---|---7-5-----7-5-----7-5---||-----1-------6-----------|---------------------------|-------------------------||---3---------------------|---------------------------|-------------------------||-4-----------------------|---------------------------|-------------------------||-------------------------|---------------------------|-------------------------|
|-4-----7-4-----10-7-----7-|-9-------9-14-9-----------------|-------7-7---------||---7-6-----7-6-----10-9---|------10--------10----9-10-12-9-|------7---7-7------||--------------------------|---11--------------11-----------|-7---7--------7-7--||--------------------------|--------------------------------|---9--------------9||--------------------------|--------------------------------|-------------------||--------------------------|--------------------------------|-------------------|
|----------12s16-16-12-12---------|--------9-12-12p9-9--------|-----------------||-12----12----------------12-12-9-|10---10-------------10-10-8|9-------5--------||----13---------------------------|---9-----------------------|-10-11-5-6-7---6-||---------------------------------|---------------------------|-------------7-6-||---------------------------------|---------------------------|---------------8-||---------------------------------|---------------------------|-----------------|
|-----------14-------------------|-----------12------------------||-10---14--------14---10------10-|9----12---------12----9------7-||--------------------------11----|---------------------------9---||-------------11-----------------|--------------9----------------||----9---12--------12----9-------|--7-----11---------11---7------||--------------------------------|-------------------------------|
|-----------10-------------------|----------------14----17----14----||9----12---------12----9-------9-|-----10---14----------------------||---------------------------10---|11-----------------------11----11-||--------------9-----------------|-------------------11-------------||--8-----11---------11---8-------|--------9----12-------------------||--------------------------------|---9------------------------------|
|-10-------------------10---14----|12---------------------7---||------12---------12--------------|-----12----9-------9-------||-----------11--------------------|---------------9-----------||----9--------------------9----12-|---9---------------------6-||---------9----------9------------|--------11---7-------7-----||--------------10-----------------|-----------------7---------|
|-9---------9---12----14----12----|13----10---9------------------||-----10--------------------------|----------------12----10---9--||------------------------9--------|------------------------------||---7---------7----11----------11-|---12----9--------------------||--------7------------------------|-------------12----11----9---8||---------------------------------|------------------------------|
|-------14-14-14--------------|------12-12-12----------|------13-13-13-----------||----10---------14-10---------|----9---------12-9------|----9---------12---------||---------------------11------|-------------------9----|----------------13-10----||--11--------------------11---|--9------------------9--|--9-------------------9--||9--------------------------9-|7----------------------7|8-----------------------8||-----------------------------|------------------------|-------------------------|
|-------14-14-14----9---------|----10-14----10-------------------||----10----------10------10---|-12-------12-------12-------------||---------------------11------|----------------11-------11---7---||---11------------------------|----------------------12----9---7-||-9-------------------------9-|----------------------------------||-----------------------------|----------------------------------|
|------12----------------------|---9-12----9------------------||-9-12----9-12---9-------------|10------10-----10---------5---||--------------9-----9---------|-------------8----6-5---6-----||------------------9------9-12-|----------------------7-------||----------------------11------|------------------------------||------------------------------|------------------------------|
|---7-9----------------------|--------14-14------------------||-8--------8-----------------|-----10------14------14--------||-------10-----10------------|---------------14-11----14-11-6||-----------11----9-11---9---|---11--------------------------||---------------------10---8-|-8-----------------------------||----------------------------|-------------------------------|
|5-------2---------------|--------------|||--7-------2-----2-------|--------------|||----6-2-----2-----2-----|-2------------|||--------------4-----4---|---4----------|||----------------------4-|-----4-0------|||------------------------|---------2----||
tabbed by Scott Gingerich - January 16th, 2005 ****************************************************************************** ******************************************************************************
Please rate this tab:
x1.0