Andy Mckee - Art Of Motion tab

Art of motion- andy mckee

Tuning: (EBG#C#AF#) lowest to highest 

|------------------------------|----------------------------------||------------------------------|----------------------------------||------------------------------|----------------------------------||-------0---0---------------0--|-------0---0-------------------0--||---------x----------0--0------|---------x------------0--0---0----||--7--7---x---3--0h3----x-5----|--7--7---x---3--0h3-3----x-5------|
NH |-------------------------------|-------------------------12----||-------------------------------|-------------------------12----||-------------------------------|-------------------NH----12----||-------0---0----------0-----0--|-------0---0-------12----------||---------x----------0---0------|---------x---------------------||--7--7---x---3--0h3-----x-5----|--7--7---x---3-----------------|
|------------------------------|----------------------------------||------------------------------|----------------------------------||------------------------------|----------------------------------||-------0---0---------------0--|-------0---0-------------------0--||---------x----------0--0------|---------x------------0--0---0----||--7--7---x---3--0h3----x-5----|--7--7---x---3--0h3-3----x-5------|
NH |-------------------------------|-------------------------12------||-------------------------------|-------------------------12------||-------------------------------|-------------------NH----12------||-------0---0----------0-----0--|-------0---0-------12------------||---------x----------0---0------|---------x-----------------------||--7--7---x---3--0h3-----x-5----|--7--7---x---3---------------0---|
|--------------------------------|----------0-------------0------||--------4---5--2-------2-2p0--0-|----------0--------0----0------||--------0---0--0-------0-0----0-|----0-----0----0--------0----0-||----0-0--------------0----------|------0h5-5----------5--5------||----------x--------------x------|----------x-------------x------||--7-------x------0h3-----x------|--5-------x--5---x------x--5---|
|-----------------------------------|-------------------------------||--------4---5--2--------2-2p-0-----|--5----7-----4-----4-5-4-0-----||--------0---0--0--------0-0------0-|--0----0---0-0-----------0--5--||----0-0---------------0--------0---|-----0-------------------------||----------x---------------x--------|---------x---------------x-----||--7-------x------0h-3-----x--------|--5------x------5--------x-----|
|---------------4---------4p0--2-|--------------2-2p0------------------||--------4---5--0---------0----0-|-----------0t----0-------------------||--------0---0----------0--------|--------0t---------------------------||----0-0--------------0----------|-----0t------------------------------||----------x--------------x------|-------------x----0-0-6h7-7-7-x-0----||--7-------x------0h3-----x------|--5----------x----------------x---5--|
|--------------------------------|----------0-------------0----||--------4---5--2-------2-2p0--0-|----------0--------0----0----||--------0---0--0-------0-0----0-|----0-----0----0--------0----||----0-0--------------0----------|------0h5-5----------5--5----||----------x--------------x------|----------x------------------||--7-------x------0h3-----x------|--5-------x--5---x-----------|
|----------7---------7--------|--4--2p0--------0-------||----------0---------0------0-|-------0--4--------2p0--||-----7/8-------8----8----0---|-------0--5--------0----||-----7/8---------8-----------|----------5-------------||--------------------x--------|-------x-----------x----||--0----------0------x--0-----|--3--3-x-----5-----x----|
|-----------0---------0--------|--0--2p0--------0-------0--||--------0-------0----0------0-|----------4---------4h5----||--------1------------1----0---|----------0-------0--------||-----3--3---------3--3--------|----------5----------------||--------x------------x--------|---------------------------||--0-----x-----0------x--3-----|-----3-------5-------------|
NH |----------------0---------|------0--------------------0--||----------7------------(b9)-|------------12----------------||-----7h8---------------0--|-----------------------10-----||-----8----------------10--|-------------------10---------||--------------------------|------------------------------||--7----------7-----x------|--10-----x------(b9)------------|
NH |--------------------------|--2p0---------------------||-----------0--------------|--0-------4p-----0--12----||--------3--------3--------|--0-------5---------12----||-----3--------------3-----|----------5---------12----||--------------------------|--------------------------||--3-----------3--------3--|-------x------5-----------|
NH |--2p0-----------------12--|---------------------||--0-------4p-----0-0--12--|---------------------||--0-------5-----------12--|---------------------||----------5-----------12--|---------------------||----------------------12--|---------------------||-------x------5-----------|--x--0--0--0--x-0-0--|
NH |------------0h2p0--12--|------------------------||------------0------12--|------------------------||------------3------12--|------------------------||------------3------12--|------------------------||------------x------12--|------------------------||--0----x----3----------|---x--0h--0--0--x-0h-0--|
NH |------------0h2p0--12--|--------------------||------------0------12--|--------------------||------------3------12--|------------7p0-----||------------3------12--|---------7----------||------------x------12--|-----------------7--||--0----x----3----------|---x--0-------------|
|---------------0h2p0-----|-----0-------------------||---------------0------4--|-------------------------||---------------3------5--|-----------------3p0-----||-----10--------3------5--|-----------0--3----------||-------------------------|----------------------2--||--0------x--3------------|--5-----x----------------|
NH |--------------0--2--0--12--|--------------------||--------------0--------12--|--------------------||--------------3--------12--|---------7----------||-----5--------3--------12--|------------7p0--8--||-----------------------12--|--------------------||--x-----x--3---------------|---x--0-------------|
|--------------0h2p0-----|-----0--------7-------4--||--------------0------4--|--------------5-------2--||-----8--------3------5--|-----------7----------3--||--------------3------5--|-------------------------||------------------------|-------------------------||--0-----x--3------------|--5-----x----------x-----|
NH |--4--0--0----0h2p0--12--|--------------------||--2--0--0----0------12--|--------------------||--3--1--1----3------12--|------------7p0-----||-------------3------12--|---------7----------||-------------x------12--|-----------------7--||-------------3----------|---x--0-------------|
|---------------0h2p0-----|-----0-------------------||---------------0------4--|-------------------------||---------------3------5--|-----------------3p0-----||-----10--------3------5--|-----------0--3----------||-------------------------|-------------------------||--0------x--3------------|--5-----x-------------2--|
NH |--------------0h2p0--12--|--------------------||--------------0------12--|--------------------||--------------3------12--|---------7----------||-----5--------3------12--|------------7p0--8--||---------------------12--|--------------------||--x-----x--3-------------|---x--0-------------|
|--------------0h2p0-----|-----0--------7-------4--||--------------0------4--|--------------5-------2--||-----8--------3------5--|-----------7----------3--||--------------3------5--|-------------------------||------------------------|-------------------------||--0-----x--3------------|--5-----x----------x-----|
NH |--4--0--0----0h--2p0--12--|----------------------||--2--0--0----0--------12--|----------------------||--3--1--1----3--------12--|----------------------||-------------3--------12--|----------------------||-------------x--------12--|----------------------||-------------3------------|---x--0--0--0--x-0-0--|
NH |------------0h2p0--12--|----------------------||------------0------12--|----------------------||------------3------12--|----------------------||------------3------12--|----------------------||------------x------12--|----------------------||--0----x----3----------|---x--0--0--0--x-0-0--|
NH |------------0h2p0--12--|----------------------||------------0------12--|----------------------||------------3------12--|----------------------||------------3------12--|----------------------||------------x------12--|----------------------||--0----x----3----------|---x--0--0--0--x-0-0--|
|------------0h2p0-----------0-----|-------0--7---------7--------||------------0------4-----0--0-----|-------0------------0------0-||------------3------5--------0-----|--7/8--8--------8---0----0---||------------3------5--------------|--7/8-------------8----------||------------x---------------------|-------x------------x--------||--0----x----3---------5--------0--|-------x-----0------x--0-----|
|--4--2p0--------0-------|-----------0---------0--------||-------0--4--------2p0--|--------0-------0----0------0-||-------0--5--------0----|--------1------------1----0---||----------5-------------|-----3--3---------3--3--------||-------x-----------x----|--------x------------x--------||--3--3-x-----5-----x----|--0-----x-----0------x--3-----|
|--0--2--0--------0-------0--|----------------0---------||-----------4---------4h5----|----------7------------(b9)-||-----------0-------0--------|-----7h8---------------0--||-----------5----------------|-----8----------------10--||----------------------------|--------------------------||-----3--------5-------------|--7----------7-----x------|
NH |------0--------------------0--|-------------------------||------------12----------------|-----------0-0-----------||-----------------------10-----|--------3-------3--------||-------------------10---------|-----3-------------3-----||------------------------------|-------------------------||--10-----x------(b9)------------|--3----------3--------3--|
NH |--2p--0---------------------|------------------------------||--0---------4p-----0--12----|------------------------------||--0---------5---------12----|------------------------------||------------5---------12----|-------0---0---------------0--||----------------------------|---------x----------0--0------||---------x------5-----------|--7--7---x---3--0h3----x-5----|
|----------------------------------|-------------------------------||----------------------------------|-------------------------------||----------------------------------|-------------------------------||-------0---0-------------------0--|-------0---0----------0-----0--||---------x------------0--0---0----|---------x----------0---0------||--7--7---x---3--0h3-3----x-5------|--7--7---x---3--0h3-----x-5----|
|-------------------------------------|--------------------------------||-------------------------------------|--------4---5--2-------2-2p0--0-||-------------------------------------|--------0---0--0-------0-0----0-||-------0---0-------------------------|----0-0--------------0----------||---------x------7-7-7-6-6-6-4-4-4----|----------x--------------x------||--7--7---x---3--------------------5--|--7-------x------0h3-----x------|
|----------0-------------0------|---------------------------------||----------0--------0----0------|--------4---5--2-------2-2p0-----||----0-----0----0--------0----0-|--------0---0--0-------0-0-----0-||------0h5-5----------5--5------|----0-0--------------0-------0---||----------x-------------x------|----------x--------------x-------||--5-------x--5---x------x--5---|--7-------x------0h3-----x-------|
|-------------------------------|---------------4---------4p0--2-||--5----7-----4-----4-5-4-0-----|--------4---5--0---------0----0-||--0----0---0-0-----------0--5--|--------0---0----------0--------||-----0-------------------------|----0-0--------------0----------||---------x---------------x-----|----------x--------------x------||--5------x------5--------x-----|--7-------x------0h3-----x------|
|--------------2t-2p0--------------------|--------------------------------||-----------0t----0----------------------|--------4---5--2-------2-2p0--0-||--------0t------------------------------|--------0---0--0-------0-0----0-||-----0t---------------------------------|----0-0--------------0----------||-----------------x---0-0-6h7-7-7-x-0----|----------x--------------x------||--5--------------x---------------x---5--|--7-------x------0h3-----x------|
|----------0-------------0----|-------0--7---------7--------||----------0--------0----0----|-------0------------0------0-||----0-----0----0--------0----|--7/8--8--------8---0----0---||------0h5-5----------5--5----|--7/8-------------8----------||----------x------------------|-------x------------x--------||--5-------x--5---x-----------|-------x-----0------x--0-----|
|--4--2p0--------0-------|-----------0---------0--------||-------0--4--------2p0--|--------0-------0----0------0-||-------0--5--------0----|--------1------------1----0---||----------5-------------|-----3--3---------3--3--------||-------x-----------x----|------------------------------||--3--3-x-----5-----x----|--0-----------0---------3-----|
|--0--2p0--------0-------0--|----------------0---------||----------4---------4h5----|----------7------------(b9)-||----------0-------0--------|-----7h8---------------0--||----------5----------------|-----8----------------10--||---------------------------|--------------------------||-----3-------5-------------|--7----------7-----x------|
NH |------0--------------------0--|-------------------------||------------12----------------|-----------0-0-----------||-----------------------10-----|--------3-------3--------||-------------------10---------|-----3-------------3-----||------------------------------|-------------------------||--10-----x------(b9)------------|--3----------3--------3--|
NH |--2p0-----------------12--|-------------------||--0-------4p-----0-0--12--|-------------------||--0-------5-----------12--|-------------------||----------5-----------12--|-------------------||----------------------12--|-------------------||-------x------5-----------|---0--0--0----0-0--|
NH |------------0h2p0--12--|-------------------||------------0------12--|-------------------||------------3------12--|-------------------||------------3------12--|-------------------||------------x------12--|-------------------||--0---------3----------|---0--0--0----0-0--|
NH |------------0h2p0--12--|-------------------||------------0------12--|-------------------||------------3------12--|-------------------||------------3------12--|-------------------||------------x------12--|-------------------||--0---------3----------|---0--0--0----0-0--|
NH |------------0h2p0--12--||------------0------12--||------------3------12--||------------3------12--||------------x------12--||--0---------3----------|
Tap to rate this tab
 
# A B C D E F G H I J K L M N O P Q R S T U V W X Y Z