Angelwitch - Angelwitch tab

Angelwitch - Angelwitch, 1980

Bronze Records
All songs written by Kevin Heybourne


************************************************************************************
Angelwitch

--------------------------------------------------------------------------------17p15----------17p15----------15p13p12---15p13p12------13p12-----12--13p12-----------17-14p17-------17-14p17-----------14---------14--------14-12---------14-12-------------------------------------------------------------------------------------------------------------------------------------------------------------------------------------------------------------------------------------------------Intro?
-----------------------------------------------------------------------------------------------------------------------------------------------------------------------------------------------------7----7--5----3-33----5---7---------------------------------------7----7--5----3-33----5---7---------------------------------------5----5--3----1-11----3---5-------------------------------------
intro rhythm
--------------------------------------------------------------------------------------------------10-10---------------------4-5------4-5-5/7-5-7-7/9-7-9--/12-------------------------7-----5/7-------------------------------------------------------------------------------------------------------------------------------------------------------------------------
intro solo----------------------15-12h13p12----12---------------------------12-13----12-13--------------15----13-12-----------------14--------14--------------------------------14------------------------------------------------------------------------------------------------------------------------------------------------------------------------------------------------
--------------------------------------|---------------------|-20-17----17-17----------------------------------------|---------------------|-------20----------------------------------------------|---------------------|-------------------7---7----5----5----3----3---5----7--|---------------------|-------------------7---7----5----5----3----3---5----7--|--------2-3-5--3---0-|-------------------5---5----3----3----1----1---3----5--|--0-3-5----------3---|-----------------verse fill A fill B
---------------------------------------|----------|--------------------------------------------------------|----------|--------------------------------------------------------|----------|-----------------------------------------10--10-9-------|----------|-------------------7-------9--10----------8---8-7-10--7-|----------|---?????????-------5-55555-7---8-8888888-----------8--5-|55555555--|-----------------chorus low background riff
----------------------------------7-----------------------------------------------------------9--------------------------5--------9--------------------9--9--------------------------5--------9---9--9999--10--12--9-----------------------------3--------7---7--7777---8--10--7----------------------------------------------------------------------------------------interlude
-------------------------------------------------------------------------------------------------------------------------10----12---------------------------------------------------10----12----7---5----3---2x---------------------------------8----10----7---5----3---2x--------------------------------------------5---3----1---0x-----------------------------interlude cont.
******************************************************************************* Atlantis
----------------------------------------------------------------------------------------------------------------------------------------------------------------------------------------------------------------------------------------------5-4--------------------------------------------------------3-2-0----------------------------------------------------
8X-------------------------------------------------------------------------------------------------------------------------------------------------------------------------------------------3-2--------------5-/8\7------------------------------------1-0---5-2--------3-/6\5-8--------------------------000000---0--0-3-0-000000--------6------------------------2X
-----0-----1----3-------1---------------------------------------0-----1----3-------1-------------------------------------------2-----4------2-----0----9---7---5---4---------------2------3-----5------3-----2----9---7---5---4---------------2------3-----5------3-----2----7---5---3---2---------------0----0-1---1-3--3-1-1---1-0------7---5---3---------------
verse part A----------------------------------------------------------------------------------------------------------------------------------------------------------------------------------5----7----5--4--3--5--2----------------0-------------------5----7----5--4--3--5--2--------0-2-3-2-0-------------------3----5----3--2--1--3--0--0-2-3----------------------------rest
------------------------------------------------------------------------------------------------------------------------7----5----4----5----7----5----4-----5?---------------------7----5----4----5----7----5----4-----5?---------------------5----3----2----3----5----3----2-----3?------------------------------------------------------------------------------pre-chorus riffs
------------------------------------------------------------------------------------------10---11---12------------------11---9----8----9----11---9----------------------------------------------------------------------------------------------------------------------------------------------------------------------------------------------------------------pre-chorus lead
------------------------------------------------------------------------------------------------------------------------11-11-11--12(hold)-----<-guitar 2--over riffs-------------------------------------------------------------------------5-4---5-4-----1--------------------------------------------3-2-0-3-2-0-3---3-0--------------------------------------chorus 4X
2nd and 3rd time after chorus:
-----------|-12-12-12---------------|----------------------------------------------------------|-2--3--4--------------------------------------------------|-2--3--4-----------------------------------------5-4------|-0--1--2-----------------------------------------3-2-0----|----------------------------------------------- 4X
--12-12-12-12-12-12-|12-12-12----------------------|----------------------------------------9--8-----7--6-----|-9--9--9--------------------------------9--8--9--7--6--7--|-9--9--9--------------------------------7--6--9--5--4--7--|-7--7--7--------------------------------------7--------5--|--------------------------------------
--12-11--10------------------------------------------------------------------------------------------------------------------------11tr12-------------------------------------------------------------------------------------------------------------------------------------------------------------------------------------------------------------------------
not sure on ending lick. there are minor overdubs not shown. *********************************************************** White witch I think this is the most developed song musically on the album.
------------7-----7-8--8--8--7--7--7--8--------------------10-10-10-10.-10--10---10-10-10-10-10-10-10------------------9--9--9--9-----9------9--9--9--9--9--9--9------------------7--7--7--7----------------------------------------------------------------------------------------------------------------------------------------------------------------------
-8--8--8--8---7-------7-10-10-10--8--8--8-10---------------10-10-10-10.---10--10---10-10-10-10-10-10-10----------------9--9--9--9------9-------9--9--9--9--9--9--9----------------7--7--7--7----------------------------------------------------------------------------------------------------------------------------------------------------------------------
------------------------|----------------------------------------------------------|----------------------------------------------------------|------------------------------------7-----7------3----3---|--3---------------------------------7-----7------3----3---|--3-----2-22--2-22-2----------------5-----5------1----1---|--1-----0-00--0-00-0--------------intro backing
--------------------------------------------------|---------12----------------------------------------------------|---------------------------------------------------------------|---13---------7-777-7-777-7-777-555---3-333-3-333-3-333--5-5---|--------------7-777-7-777-7-777-555---3-333-3-333-3-333--5-5---|--------------5-555-5-555-5-555-333---1-111-1-111-1-111--3-3---|-------------
--------------------|-------------------------------|-----------------------------------------|-------------------------------|-----------------------10----------12-10-|-9------10-12--9-------10--12--|-----------------------10----------12-10-|-9------10-12--9-------10--12--|------3--5------3--5----8-8-8-8-8--10--8-|-7-7777--8-10--7-7777---8--10--|------3--5------3--5---------------------|-------------------------------|-0000-1--3-0000-1--3-chorus
------------------------------5-7------7-8-7--10-------------------------------------8--------8--8---------------------------------------6-7------------------------------------------5---7-9-5---9------9--------------------------------------------------------------------------------------------------------------------------------------------------------------solo part
------5-7----7---9-10--7------12---14-15--12----12--14-15--12---8-------8-----------------------------------------------------------------------------------------------------------------------------------------------------------------------------------------------------------------------------------------------------------------------------------------------------------
-0--------------8----------|---------------------------------5--------------6----------|---------------------------------4---4X---------5---4X-----|---5----4------------------------7--------------5----------|---5----4------------------------0-------------------------|---3----2--------------------------------------------------|--------------------------------quiet middle part - chords
------------------------------|--------------------------------------------------------------|---------------------------------------------------10-----9---|---------------------------------5---5-5-6-7---7---10-----9---|-9----10-----12----10-12---10-9--5---5-5-6-7---7----8-----7---|-77777-88888-10-10--8-10-10-8-7--3-x-3-3-4-5-x-5--------------|--------------------------------
------------------------------------------------------------------------------------------------------------------------/9---9-9-9---9-7------------------------------------------------------------10-9--10-9-10------------------------------------------------------------8------------------------------------------------------------------------------------solo breaks over intro backing
--------------------------------------------------------------------------15--13h1513-----------13--------------13---------------------------------------14-12-14-----14-14--12-14----14------------------/12--------------------------------------------------10---12b-10\----------------------------------------------------12---12----------------------------------------------------------------------------
-----17-17-17-17-17-17-17-17-17-17-17-17-17-17--17-17-15-15-13-13-12------------------------------------------------------------------------14--------------------------------------------------------------------------------------------------------------------------------------------------------------------------------------------------------------------------------------------------------------------------------
----------------------------------------------------------------------12---13----12-13--12h13p12----12-13-15---------------------------------------14-----------------14------------------------------------------------------------------------------------------------------------------------------------------------------------------------------------------------------------------------------------------------------
-20---17h20p17--15----17---20--17-17-15-17--20--17----------------------------------------17------------------------------------15----15b--13-------------------------------------------------------17----17------------------------------------------------------------------------------------------------------------------------------------------------------------------------------------------------------------------------------
------------------------------------------------------------------------------------------------------------------------------------------------------------------------------------------/3-2--0-------------------------------------------------------------3-2------3-2--/5--3-2---------------------------5----------------1----------------------------------------2X
back to verse and chorus
--------------------------------------------------------------------------------------------------------------------------9--7--------------------------------------------------------------10-9-8--8-7-8-7-8-7------------------7-------------------------------------------8--8-7-8-7-8-7--7-------------------------------------------6--6-5-6-5-6-5--5--------------ending.
****************************************************************************** Confused
----------------------------|----------------------------------------------------------|------------------------------------------4-5-7--5--4-----|--9----9----------------------------------4-5-7--5--4-----|--9----9----------------------------------2-3-5--3--2-----|--7----7-----------------------0-0-0-0-0--------x--5--3---|------------------------------
----------------------------------------------------------------------------------------------------------------------------------------------------------------------------------------------------------------------------------------------2--2---2--4--4---4--5--5-----5---4-------------------------0--0-x-0--2--2-x-2--3--3--x--3---2-----------------------verse
-------------------------------------------------------------11--10------------------------------------------------------------12--9-------8-7------------------------------------------------------------10--7---------------------------------------------------------------------------------------------------------------------------------------------------verse lead fills
chorus
---------------------------------------------------------------------------------------------------------------------------------------------------------------------------------------------------------------------------------------------2-------1-0---1--0-----------------------------------------0-00000-----3------3--------------------------------------4X
bridge with harmonics, then
-----------------------------------------------------------------------------------------------------------------------9/--11/--12\--11----9-8----9-8-----------------------------9/--11/--12\--11----9-8-9--9-8-9---------------------------7/---9/--10\---9----7-6-9--7-6-9---------------------------------------------------7------7--------------------------2X
----------|---------|------------------------------------------------|---------|---------------------------------------9-9-7-9--|-6-5-----|-4-5-----------------------------------9-9-7-9--|-6-5-5---|-4-5--5--3-----------------------------7-7-5-7--|-4-3-5---|-2-3--5--3--------------------------------------|-----3---|------3--1----------------------------under solo last pass 3X
-------------------------------------------------------------------------------------------------------------------------9--9--9--7--9----------------------------------------------9--9--9--7--9----------------------------------------------7--7--7--5--7------------------------------------------------------------------------------------------------------2X
*********************************************************** Sorcerers
---------------0----------------------------------------------------------0----------------------------------------------------------0----------------------------------------------0-----------2--------------------------------------------3---3-2-2h3p2-2----------------------------------------------------------0-------------------------------------------
-0-----------------------------1----1---1-1h3p1---------------0----0----------------------1-----1---------1--------------------------0------------2--2------2---------2----------------0------0-------0------3-----------------------------------------2-------2-----0--3-----------------------------------------------3-----2----1------------------------------A F
-------0-------------------------1-----1--1-1h3p1----------------------3----1----0-----0----1------1--------1------------------0----0----0----0--0-2---2-------2--------2---------2---2-----2----2----2----2--2---3--------------------------2--2------------------------3------------------------------0---------------------------1-----------------------------A F
---------------------------------------------------------------------------------------------------------------------------4-5----------------------------------------------------2---4-5--5-------------------------------------------------2---2-3--5-------------------------------------------------0--------3--2-3-2-----------------------------------------
------------------------------------------------------------------------------------------------------------------------7h9------7h9------7h9----------7---------------------------7h9------7h9------7h9-------9--7---------------------------7---7777-----7777-----7777--9--5-------------------------------------------------------7----------------------------(2:53)
guitar solo, then:
--12--10------------------------------------------------------------12----10---10---------10--------------------------------------------12-----11-12----12-9---7--7h9---------------------------------------------------------------------------------------------------------------------------------------------------------------------------------------------
then organ, then end. ********************************************************************* Gorgon
---------------------|---------------------------------------------------------5--5---5h7p5h7p5----|--2--2---2h4h2p4h2---------------------------------------5--5---5h7p5h7p5----|--2--2---2h4p2h4p2---------------------------------------7--7---5---5---5----|--4--4---2---2---2---------------------------------------7--7---5-------5----|--4--4---2-----------------------------------------------5--5----------------|--2--2-------------------------------------------------- 2X 2X
-------------------------------------------------------------------------------------------------------------------------------------------------------------------------------------------------------------------------------------------------------------------------------------------------------------------------4--2p0--------------------------------------------------------------------------------2-------------------------------------------------------------------- something like this in the background
-------------------------------------------------------------------------------------------------------------------------------------------------------------4-----4-----4-----4-----7-----7-----7-----7------2-----2-----2-----2----------4-444-4-444-4-444-4-444-7-777-7-777-7-777-7-777--2-222-2-222-2-222-2-222------4-444-4-444-4-444-4-444-7-777-7-777-7-777-7-777--2-222-2-222-2-222-2-222------2-222-2-222-2-222-2-222-5-555-5-555-5-555-5-555--0-000-0-000-0-000-0-000----- main riff
------------------------------------------------------------------------------------------------------------------------------------------------------------------9-11----------------------------------------------------------------------7-9------7-9-7-------------------------------------------------------------------------------9------------------------------------------------------------------------------------------------------------------------------------------ break
--10---------9--------1-------0-------------------------------------------------10---------9----/---1-------0-------------------------------------------------11---------10---/---2-------0-------------------------------------------------12---------11---/---3-------2-22222222----------------------------------------12---------11-------3-------2-22222222----------------------------------------10---------9--------1-------0-00000000--------------------------------------
---------------------------------------------------------------------------------3---------5--------1----------------------------------------------------------4---------6--------2------0---------------------------------------------------5---------7--------3------2---------------------------------------------------5---------7--------3------2---------------------------------------------------3---------5--5-4-3-1------0------------------------------------------------
-----------------------------------------------------------------------------------------------------------------------------------------------------------------------------------------------------------------11--11-9----------------------------9-9--7--7-6-----7-6--------------------7--11--11-9-------------------/9--7-9----------------------7--/9---7-9----7h9----------------------------------------------------------------------------------------------------------- heavy "wah" ?????????
******************************************************* Sweet danger
--------------------------------------------------------------------------------------------------------------------------------------------7--6--7--------------------7--9-999--7-9-999-7-9-999---7--6--7------------------------------------------------5--4--5-------------------------------------------------------------------------
--------------------------------------------------------12-10h12p10-----10-------------------------------------------------12-----12-11-12-11h12p11--9-11-12-9----------------------------------------------------------------------------------------------------------------------------------------------------------------------------
---------------------------------------------------------------------------------------------------------------7-77---9--9--------------------------------------------7-77---9--9--------------------------------------------5-55---7--7--5-6-7-8-7-5--------------------------------------------3-4-5-6-5-3------------------------------verse
-------------|------------------------------------------------------|------------------------------------------------------|-8-7-6-------------------------------------8----10----|-------8-7-6-------------------------------8----10----|-------------------------------------------6-----8----|-----------------------------------------3X follow vocals?
chorus then solo(only bass backing) then back to verse
--------------|---------------------------------------------------------|--------------------------------------------7-77---9--9--|--9-7-9-------------------------------------7-77---9--9--|--9-7-9-------------------------------------5-55---7--7--|--7-5-7-----------2--------------------------------------|------------------0------------------------
********************************************************************* Free Man
--5----------------6----------------3---------5---------------5--------6----------5h6p5-6----------------3---------5---------10-8--6--------7-picking-5------7----------------4---------6---------10-9--7------
--7----------------8-picking--------5-picking-7-picking-------7------5-5----------------8----------------5---------7-----------------------------------------6--------5-5h6-5-3---------5----------------------intro - hard to hear individual notes
--------------------------------------------------------------------------------------------------------------------------7--------5--------------------------------------------------7--------5--------------------------------------------------5--------3------------------------------------------------------------------------------------------------------------
--------------------------------------------------------------------------------------------------------------------------3------------5-----/10--9---7-------------------------------3--------3---5-----/10--9---7---7-7-7---7-7-7--7-7--5--3----1------0-1---3-----/8---7---5---5-5-5---5-5-5--5-5--3---3-------------------------------------------------------------
chorus ------------------------------------------------------------ ----------------------------------------------------------- ----------------------------------------------------------- ----------------------------------------------------------- ------------------------------------------------------------ ------------------------------------------------------------ solo
------------------------------------------------------------------------------------------------------------------------10-9-7----7-------------------------------------------------------------10-8----8-7-5--7-8---7-h-8-p-7-h-8-p-7-h-8-p-7-------------------------------------------------------------------------------------------------------------------------end of solo - 2X
************************************************* angel of death
---------------------------------------------------------------------------------------------------------3-------/6-5-------------------------------------3-------/6-5-------------------------------------1-------/4-3-------------------------------0-0-0----0-0------------------------------------
------------------------------------------------------------------------------------------------------------------2---------2-----------------------2----5----4----2----5----2----3------------------2----5----4----0----5----0----3------------------0----3----2---------3---------1-----------------
----------------------------------------------------------------------------------------------------4----4-----6----6-----7----7-----9---------------2222222222-4444444444-5555555555-77777---------------------------------------------------7-5-4--------------------------------------------5-3-2--
----------------------|------------------------------------------------|----------------5-6-----------------------------|--------------------7---------------------------|-2--3----------------------2----4------5------7-|-0--1--4-------------------0-00-2-0-00-3-0-00-5-|-------2------------------chorus ???? ???????
solo break
-----------------------------------------------------------------------------------------------------------------------------------9-8--6-5---5--6---------------------------7-6--4-3---3--4-----------------------000-----x----x---------------------------riff part
--12--12--12------------------------------------------------------------------------------------------------------------------------------------------------------------------------------------------------------------------------------------------------heavy effect
Devils Tower
---0---0---0---0----0---0---0---0-----------3-3-3-3-3-3-3-3--2-2-2-2-2-2-2-2---------3---3---3---3----2---2---2---2-----------------------------------------------------------------------------------------------------------------------------------------
some other picking after this(Dm?)
---------------------------------------------------------------------------------------------------|---------------7-------------------------|---------------7------------5--5---3--3--|--3-3-3--5-5-6-7------------3--3---1--1--|--1-1-1--3-3-4-5----------6X
--------------------------------------------------------------------------------------------------------------------------------------------------2-2-3-2-----------------0---3-2---/5-3------------5-3-2-0-------------------------------------------------
then solo.
Tap to rate this tab
 
# A B C D E F G H I J K L M N O P Q R S T U V W X Y Z