The Woven Web tab with lyrics by Animals As Leaders for guitar @ Guitaretab

Animals As Leaders – The Woven Web tab

-------------------------------------------------------------------------------
                             THE WOVEN WEB (INTRO) - Animals As Leaders
-------------------------------------------------------------------------------
Tabbed by: https://www.youtube.com/user/espibanez1

Tuning: BDADGBE

Left hand is all hammer-ons.


************************************

| /   slide up
| \   slide down
| h   hammer-on
| p   pull-off
| ~   vibrato
| +   harmonic
| x   Mute note
| b   Bend
| pb  Pre-bend
| br  Bend release
| pbr Pre-bend release
| brb Bend release bend

************************************

T T T T T T T TE |----------------------------------------------------------|B |----------------------------------------------------------|G |o-----------------6\5/6-----------------------------------|D |-----------11-------------11-------11----11-------11------|A |o--7\6/7----------4\3/4-----------------------------------|D |--------------11-------------11-------------11-------9----|B |--------------------------------5-----7--------9----------|
T T T T T T T T----------------------------------------------------------|----------------------------------------------------------|-----------------6\5/6------------------------------------|-----------11-------------11-------11----11-------11------|--7\6s/----------4\3/4------------------------------------|--------------11-------------11-------------11-------9----|--------------------------------5-----7--------9----------|
T T T T T T T T T----------------------------------------------|-----------------------------------9----------|-----------------------9----------------------|--11----9--11-------11----11----------11------|-----11-------11-------------11---------------|--7--------------7--------------7--------11---|----------------------------------------------|
T T T T T T----------------------------------------------------|----------------------------------------------------|--------9-------------------------------------------|-----------11----------10----------10---------------|--7--------------7-----------6-----------6----------|--------------11----------10----------10------------|-----9--------------9-----------9-----------9-------|
T T T T T T T T----------------------------------------------------------|----------------------------------------------------------|-----------------6\5/6------------------------------------|-----------11-------------11-------11----11-------11------|--7\6/7----------4\3/4------------------------------------|--------------11-------------11-------------11-------9----|--------------------------------5-----7--------9----------|
T T T T T T T T----------------------------------------------------------|----------------------------------------------------------|-----------------6\5/6------------------------------------|-----------11-------------11-------11----11-------11------|--7\6/7----------4\3/4------------------------------------|--------------11-------------11-------------11-------9----|--------------------------------5-----7--------9----------|
T T T T T T T T T----------------------------------------------|-----------------------------------9----------|-----------------------9----------------------|--11----9--11-------11----11----------11------|-----11-------11-------------11---------------|--7--------------7--------------7--------11---|----------------------------------------------|
T T T T T T----------------------------------------------------|----------------------------------------------------|--------9-------------------------------------------|-----------11----------10----------10---------------|--7--------------7-----------6-----------6----------|--------------11----------10----------10------------|-----9--------------9-----------9-----------9-------|
T----------------------------------------|----------------------------------------|----------------------------------------|--11------------------------------------|--11------------------------------------|--------------------2--4--6-------------|--2--4--5--4--5--7----------------------|
T----------------------------------------|----------------------------------------|--8-------------------------------------|--9-------------------------------------|----------------------------------------|--------------------2--4--6--4--6--7----|--2--4--5--4--5--7----------------------|
T----------------------------------------|----------------------------------------|----------------------------------------|--11------------------------------------|--11------------------------------------|--------------------2--4--6-------------|--2--4--5--4--5--7----------------------|
T----------------------------------------|--9-------------------------------------|--8-------------------------------------|----------------------------------------|----------------------------------------|--------------------2--4--6--4--6--7----|--2--4--5--4--5--7----------------------|
T T T T------------------------------------------|------------------------------------------|--9\7-------------------------------------|----------9--------------9/11-------------|----------------9-------------------------|------------------------------------------|--3---------------------------------------|
T T T--------------------------------------|--------------------------------------|--------------------------------------|-----------11/12----11---9------------|--------------------------------------|-----------11/12----11---9------------|--3-----------------------------------|
T----------------------------------------|----------------------------------------|----------------------------------------|--11------------------------------------|--11------------------------------------|--------------------2--4--6-------------|--2--4--5--4--5--7----------------------|
T----------------------------------------|----------------------------------------|--8-------------------------------------|--9-------------------------------------|----------------------------------------|--------------------2--4--6--4--6--7----|--2--4--5--4--5--7----------------------|
T----------------------------------------|----------------------------------------|----------------------------------------|--11------------------------------------|--11------------------------------------|--------------------2--4--6-------------|--2--4--5--4--5--7----------------------|
T----------------------------------------|--9-------------------------------------|----------------------------------------|----------------------------------------|--8-------------------------------------|--------------------2--4--6--4--6--7----|--2--4--5--4--5--7----------------------|
T T T--9\7--------------------------|-----------------------7-------|----------9\7/9----------------|-------------------------------|-------------------------------|-------------------------------|--3----------------------------|
T T T T T---------------------------------------||-----------------7---------------------||--7--------------------7--------------o||--------7--------------------7\6-------||--------------------------------------o||---------------------------------------||---------------------------------------||
*shlappity shlap*
Please rate this tab:
x1.0