Anni B Sweet - Shiny Days tab

CAPO 2nd FRET (Cejilla en el 2 traste)

Intro+Verse

|-----3---3---3----|------3---3---3-----||----1--1---1---1--|-----1--1---1---1---||---2----2---2---2-|----2----2---2---2--||--3---------------|--------------------||------------------|--0-----------------||------------------|--------------------|
|-----3---3---3----|------3---3---3-----||----1--1---1---1--|-----1--1---1---1---||---0----0---0---0-|----0----0---0---0--||------------------|--------------------||--3---------------|--3-----------------||------------------|--------------------|
Chorus
|----------------|----------------||-----1-----1----|-----0-----0----||----0-0---0-0---|----1-1---1-1---||---2---2-2---2--|---2---2-2---2--||--3-----3-------|--2-----2-------||----------------|----------------|
|----------------|----------------||-----1-----1----|-----1-----1----||----2-2---2-2---|----2-2---2-2---||---2---2-2---2--|---3---3-3---3--||--0-----0-------|--3-----3-------||----------------|----------------|
|----------------|----------------||-----1-----1----|-----0-----0----||----0-0---0-0---|----1-1---1-1---||---2---2-2---2--|---2---2-2---2--||--3-----3-------|--2-----2-------||----------------|----------------|
|----------------|----------------||-----1-----1----|-----1-----2----||----2-2---2-2---|----2-2---0-0---||---2---2-2---2--|---3---3-0---0--||--0-----0-------|--3-------------||----------------|--------3-------|
|----------------|----------------||-----1-----1----|-----0-----0----||----0-0---0-0---|----1-1---1-1---||---2---2-2---2--|---2---2-2---2--||--3-----3-------|--2-----2-------||----------------|----------------|
|----------------|----------------||-----1-----1----|-----1-----1----||----2-2---2-2---|----2-2---2-2---||---2---2-2---2--|---3---3-3---3--||--0-----0-------|--3-----3-------||----------------|----------------|
That's it! Lyrics: But it's only when you leave that I'm staying up alone and you just walked out the door even if I start to moan I said baby baby please don't you leave me sitting here got a lot of imagination for all horrible things But you're ready in the car and you're driving your way home, well, I'm leaving you a message on the telephone saying: Oh, baby bring me my shiny days bring me my shiny days back and he said; Oh, darling, bring me my shiny days and take away the rainy days and it's been three days past but you still have not been back you've got a lot of work to do you're a busy busy man but i'm still waiting for you with the same love as before yes, i'm still waiting for you to give me more and more Oh, baby, bring me my shiny days bring me my shiny days back and he said; Oh, darling, bring me my shiny days and take away the rainy days Enjoy! cacafuti.
Tap to rate this tab
 
# A B C D E F G H I J K L M N O P Q R S T U V W X Y Z