Romanza tab with lyrics by Anonymous - Easy chords and tabs for guitar

Anonymous – Romanza tab

ROMANZA - ANONIMO / ROMANCE - ANONYMOUS

/ = Slide
^ = Strum
N.H. = Natural Harmonic                    

E|---5/7-------7--------7-------|B|-------0--------0--------0----|G|---------0--------0--------0--|D|------------------------------|A|------------------------------|E|---0--------------------------|
|--7--------5--------3--------|--3--------2--------0--------||-----0--------0--------0-----|-----0--------0--------0-----||--------0--------0--------0--|--------0--------0--------0--||-----------------------------|-----------------------------||-----------------------------|-----------------------------||--0--------------------------|--0--------------------------|
|--0--------3--------7--------|--12--------12--------12--------||-----0--------0--------0-----|------0---------0---------0-----||--------0--------0--------0--|---------0---------0---------0--||-----------------------------|--------------------------------||-----------------------------|--------------------------------||--0--------------------------|---0----------------------------|
|--12--------10--------8--------|--8--------7--------5--------||------0---------0--------0-----|-----5--------5--------5-----||---------0---------0--------0--|--------5--------5--------5--||-------------------------------|-----------------------------||-------------------------------|--0--------------------------||---0---------------------------|-----------------------------|
|--5--------7--------8--------|--7--------8--------7--------||-----5--------5--------5-----|-----7--------7--------7-----||--------5--------5--------5--|--------8--------8--------8--||-----------------------------|-----------------------------||--0--------------------------|-----------------------------||-----------------------------|--7--------------------------|
|--11--------8--------7--------|--7--------5--------3--------||------7--------7--------7-----|-----0--------0--------0-----||---------8--------8--------8--|--------0--------0--------0--||------------------------------|-----------------------------||------------------------------|-----------------------------||---7--------------------------|--0--------------------------|
|--3--------2--------0--------|--2--------2--------2--------||-----0--------0--------0-----|-----0--------0--------0-----||--------0--------0--------0--|--------2--------2--------2--||-----------------------------|-----------------------------||-----------------------------|--2--------------------------||--0--------------------------|-----------------------------|
|--2--------3--------2--------|--0--------0--------0--------|--0-^------------||-----0--------0--------0-----|-----0--------0--------0-----|--0-^------------||--------2--------2--------2--|--------0--------0--------0--|--0-^------------||-----------------------------|--2--------------------------|--2-^------------||--1--------------------------|-----------2-----------------|--2-^------------||-----------------------------|--------------------3--------|--0-^------------|
|---4--------4--------4--------|--4--------2--------0--------||------0--------0--------0-----|-----0--------0--------0-----||---------1--------1--------1--|--------1--------1--------1--||------------------------------|-----------------------------||------------------------------|-----------------------------||---0--------------------------|--0--------------------------|
|-----------------------------|-----------------------------||--5--------4--------4--------|--4--------3--------4--------||-----2--------2--------2-----|-----2--------2--------2-----||--------4--------4--------4--|--------4--------4--------4--||--2--------------------------|--2--------------------------||-----------------------------|-----------------------------|
|--9--------9--------9--------|--9--------11--------9--------||-----7--------7--------7-----|-----7---------7--------7-----||--------8--------8--------8--|--------8---------8--------8--||-----------------------------|------------------------------||-----------------------------|------------------------------||--7--------------------------|--7---------------------------|
|--9--------7--------7--------|--7--------9--------11--------||-----9--------9--------9-----|-----9--------9---------9-----||--------9--------9--------9--|--------9--------9---------9--||-----------------------------|------------------------------||-----------------------------|------------------------------||--0--------------------------|--0---------------------------|
|--12--------12--------12--------|--12--------11--------10--------||------9---------9---------9-----|------9---------9---------9-----||---------9---------9---------9--|---------9---------9---------9--||--------------------------------|--------------------------------||--------------------------------|--------------------------------||---0----------------------------|---0----------------------------|
|--9--------9--------9--------|--9--------7--------5--------||-----5--------5--------5-----|-----5--------5--------5-----||--------6--------6--------6--|--------6--------6--------6--||-----------------------------|-----------------------------||--0--------------------------|--0--------------------------||-----------------------------|-----------------------------|
|--4--------4--------4--------|--4--------5--------2--------||-----4--------4--------4-----|-----4--------4--------4-----||--------2--------2--------2--|--------2--------2--------2--||-----------------------------|-----------------------------||--2--------------------------|--2--------------------------||-----------------------------|-----------------------------|
|--0--------0--------0--------|--0-^------------||-----0--------0--------0-----|--0-^------------||--------1--------1--------1--|--0-^------------||--2--------------------------|--2-^------------||-----------2-----------------|--2-^------------||--------------------4--------|--0-^------------|
|-5/7-------7--------7--------|--7--------5--------3--------||-----0--------0--------0-----|-----0--------0--------0-----||--------0--------0--------0--|--------0--------0--------0--||-----------------------------|-----------------------------||-----------------------------|-----------------------------||--0--------------------------|--0--------------------------|
|--3--------2--------0--------|--0--------3--------7--------||-----0--------0--------0-----|-----0--------0--------0-----||--------0--------0--------0--|--------0--------0--------0--||-----------------------------|-----------------------------||-----------------------------|-----------------------------||--0--------------------------|--0--------------------------|
|--12--------12--------12--------|--12--------10--------8--------||------0---------0---------0-----|------0---------0--------0-----||---------0---------0---------0--|---------0---------0--------0--||--------------------------------|-------------------------------||--------------------------------|-------------------------------||---0----------------------------|---0---------------------------|
|--8--------7--------5--------|--5--------7--------8--------||-----5--------5--------5-----|-----5--------5--------5-----||--------5--------5--------5--|--------5--------5--------5--||-----------------------------|-----------------------------||--0--------------------------|--0--------------------------||-----------------------------|-----------------------------|
|--7--------8--------7--------|--11--------8----------7--------||-----7--------7--------7-----|------7----------7--------7-----||--------8--------8--------8--|---------8----------8--------8--||-----------------------------|--------------------------------||-----------------------------|--------------------------------||--7--------------------------|---7----------------------------|
|--7----------5--------3--------|--3--------2--------0--------||-------0--------0--------0-----|-----0--------0--------0-----||----------0--------0--------0--|--------0--------0--------0--||-------------------------------|-----------------------------||-------------------------------|-----------------------------||--0----------------------------|--0--------------------------|
|--2--------2--------2--------|--2----------3--------2--------||-----0--------0--------0-----|-------0--------0--------0-----||--------2--------2--------2--|----------2--------2--------2--||-----------------------------|-------------------------------||--2--------------------------|--1----------------------------||-----------------------------|-------------------------------|
N.H.|--0--------0--------0--------|----0-^--------12---||-----0--------0--------0-----|----0-^--------12---||--------0--------0--------0--|----0-^--------12---||--2--------------------------|----2-^-------------||-----------2-----------------|----2-^-------------||--------------------3--------|----0-^-------------|
Please rate this tab:
x1.0