Six Venezuelan Pieces - Nelly A La Senora Nelly De Afanador tab with lyrics by Antonio Lauro - Easy chords and tabs for guitar

Antonio Lauro – Six Venezuelan Pieces - Nelly A La Senora Nelly De Afanador tab

*************************************************************************
Nelly by A.Lauro tabbed by Sav. (sav@asnelson.freeserve.co.uk)
6:04 PM 06-May-2000
Please feel free to email me with any corrections, comments or tips.

Enjoy!!!
*************************************************************************
CORRECTIONS:-
Altered 6:36 PM 11-Jun-2000
Changed the E on the G string to F (9 to 10) in bar 3.
thanx Andy.

*************************************************************************

Nelly (A la Senora Nelly de Afanador) - Antonio Lauro (1917-1986)
++++++++++++++++++++++++++++++++++++

Tempo = Allegro (dotted crotchet=120)
Time  = 6/8  3/4
Format= Section A twice, Section B twice, Section C twice,
        then repeat again to finish.

                Section A                

E +----12-12-||--10--10----8--8-|-7-7-10----------|B |----------||--12--12---10-10-|-8------------8--|G |----12-12-|| *---------------|-0---------10----|D |----------|| *---------------|---------9-------|A |----------||-----------------|-----------------|E +----------||-----------------|-----------------|
CV.......... CIII
|-----5-5---8p5--3--|------0----------------0---||-----6-------------|--------------1------------||-----------0-------|----------0--------0-------||-0-----------------|---------------------------||-------------------|--3------------------------||-------------------|---------------------------|
|-5--5---8--7p5-4-|----7--4p0-------|-----------0-------||-5---------------|-----------------|-----6-----------4-||-5---------------|------------7----|-------------------||-----------------|---------------6-|-------------------||-0---------------|-----------------|--------7----------||-----------------|-0---------------|--7-----------0----|
|-0--5p0-----------|-----0-------------|----------------||---------1--------|-----------3-----1-|-0--0---3---3---||------------2-----|-----------------2-|-1------2---2---||---------------2--|--------0-----1----|-2------0-------||-0----------------|--3----------------|----------------||------------------|-------------------|--------1-------|
CI | 1st time........|| 2nd time.........
|------------------|--------12-12----||------------------||-1--1-----0---0---|-----------------||------------------||-2--2-----1---1---|---2----12-12--* ||--2------------0--||-1--1-----0---0---|---2-----------* ||--2--2------------||------------------|---3-------------||--3-----3--0------||-2--------4-------|---5-------------||--5---------------|
Section B
||-----------------------|------------0------0---|||-----------------0--1--|-----1-----------------||| *---0--0--0--2-----0--|-----0-----------------||| *---3--------------2--|-----2-----------------|||-----2-----------------|--3------2------0------|||-----3-----------------|-----------------------|
CIII..................
|-3---------------------|------------------0----||-----6-------3------5--|--1--------------------||---------4------4------|-----0-----------------||---------3------3------|--------2--------------||-----------------------|-----------3-----------||-----3----------3------|-----------------------|
CIX
|--0--0--0--2--4--5--|----5----8-----8--|-12--10------7----8-||--3--------3-----5--|------------------|--9----------0------||--4--------4-----5--|------------------|--9----------7------||--------------------|------------7-----|--------------------||--------------------|-0-----7----------|---------7----------||--0-----------------|------------------|--0------------0----|
CV
|-5---------------|-----------------|--------------------+|----5------------|-----------0--1--|---1-----2-----2----||-------5------0--|--0--0-0-2----0--|---0-----0-----0----||----------7------|--3-----------2--|---2-----2-----2----||-----------------|--2--------------|-3----2-----1-------||-5---------------|--3--------------|--------------------+
|------------------------|--0-------------0--||--3--3-------4-------4--|-------------------||--2--2-------2-------2--|--1----------------||--3--3------------------|-------------------||--0---------------------|-----2/7-----------||---------2-------1------|--0---------0------|
| 1st time............
|-3p1--------1-|------0---0---------|--0--------------|---------------------|||-----3---3----|--------4--------1--|-----3-2--3----0-|---------------------|||-------4------|-----------------2--|-----------------|--2-------------0--* |||-0------------|--------------2-----|-----3-2--3----0-|-----2-------------* |||--------------|--------------------|-----------------|--3-----3------------|||--------------|--0-----------------|--0----------0---|--5--------5---------||
Section C key change to Amaj | 2nd time...|| CII..
|------------||-----------2-------|--0------------------||------------||----2---2--------2-|-----------0---------||-2----------|| *----2--------0---|-----1-----1---------||----2-------|| *-----------------|--------2------------||-3----3-----||----0------1-------|--2------------------||-5-------5--||-------------------|-----------------0---|
|----------0-------|-----------------|----------------||-023-3-2--------3-|--2-----2-----0--|-2-2-0-3-----2--||---1--------------|----2--------2---|----------------||---0--------------|------2----------|----------------||---2---2----------|--0--------------|-0--------------||-------------0----|-----------0-----|----------0-----|
|-0---------------|--0----------------|---------------||----0----3-----2-|-----0----3------2-|-5----2--------||----1----1-------|-----1----1--------|----2-------2--||-------2---------|--------2----------|---------------||-2---------------|--2----------------|-0-------------||------------0----|--------------0----|---------0-----|
CII CIV CII
|--------2--------|-------------------|--------0------||-2---2-----2-----|--6----------------|-2---------2---||---2---------2---|-----4-------------|---3---------0-||-----------------|--------6----------|-----2---------||-0---------------|--4--------4-------|--------1------||--------2--------|--------------7--4-|-2-------------|
|---------------|------------0-------|------------------||-3-------------|-023--3--2--------3-|--2------3-----2--||----4----------|--------------------|------2--2-----2--||------4--------|---3-----------3----|----2----4-----2--||-2-------2-----|--------------------|------------------||---------------|--------------------|--0---------0-----|
D.C. Sect A | FINISH | | 1st time....|| 2nd time......|| 3rd time......|
|------------------|-------------||-------12--12--|-----------5----|||-0-------2-----0--|-------------||---------------|-----------2----|||-1----1--1-----1--|-2---------* ||--2----12--12--|--2--------2----|||-0--2----2-----0--|-2-2-------* ||--2------------|--2-------------|||------------------|-4---4-------||--4------------|--4--------0----|||----0-------0-----|-5-----5-----||--5------------|--5-------------||
**************************** Sav 2000 ********
Please rate this tab:
x1.0