Antonio Pinto - Warlord tab

Antonio Pinto - Warlord (from the film Lord of War)

Tabbed by: Tonoko?

INTRO:

|-------------|-------------||-------------|-------------||-------------|-------------||-2---2---2---|-3---3---3---| x3|---0-------0-|---0-------0-||-5-----5-----|-5-----5-----|
PART1:
|-------------|-------------|-------------|-------------||-------------|-------------|-------------|-------------||-------------|-------------|-------------|-0---0---0---||-2---2---2---|-3---3---3---|-2---2---2---|---0-------0-| x2|---0-------0-|---0-------0-|-3-3-------3-|-2-----2-----||-5-----5-----|-5-----5-----|-------3-----|-------------|
|-------------|-------------|-------------|-------------||-------------|-------------|-------------|-------------||-------------|-5---5---5---|-4---4---4---|-2---2---2---||-2---2---2---|---3-------3-|---2-------2-|---0-------0-| x2|---0-------0-|-0-----0-----|-0-----0-----|-5-----5-----||-5-----5-----|-------------|-------------|-------------|
|-0---0---0---||-------------||---5-------5-||-3-----3-----| x4|-------------||-------------|
PART2:
|-0---0---0---|-1---1---1---|-0---0---0---|-------------||-------------|-------------|-------------|-3---3---3---||---2-------2-|---2-------2-|---0-------0-|---4-------4-||-------------|-------------|-------------|-0-------0---| x2|-0-----0-----|-0-----0-----|-3-----3-----|-------------||-------------|-------------|-------------|-------------|
|-0---0---0---|-8---8---8---|-7---7---7---|-5---5---5---||-------------|---6-------6-|---5-------5-|---3-------3-||---2-------2-|-------------|-------------|-0-----0-----| x2|-------------|-7-----7-----|-7-----7-----|-------------||-0-----0-----|-------------|-------------|-------------||-------------|-------------|-------------|-------------|
|-1---1---0---||---3---------||-----------2-| x3|-0-----0-----||-------------||-------------|
PART3:
|-------------|-------------||-------------|-------------||-------------|-------------||---2-2---2---|---3-3---3---| x3|---0-0---0---|---0-0---0---||-5-----5-----|-5-----5-----|
|-------------|-------------|-------------|-------------||-------------|-------------|-------------|-------------||-------------|-------------|-------------|-------------||---2-2---2---|---3-3---3---|---2-2---2---|---5-5---5---| x2|---0-0---0---|---0-0---0---|-3-----3-----|---5-5---5---||-5-----5-----|-5-----5-----|-------------|-3-----3-----|
|-------------|-------------|-------------|-------------||-------------|-------------|-------------|-------------||-------------|---5-5---5---|---4---4-4---|---2-2---2---||---2-2---2---|---3-3---3---|---2---2-2---|---0-0---0---| x2|---0-0---0---|-0-----0-----|-0-----------|-5-----5-----||-5-----5-----|-------------|-------------|-------------|
|---0-0---0---|---0---0-0---||-------------|-------------||---5-5---5---|---5---5-5---||-3-----3-----|-3-----------| x2|-------------|-------------||-------------|-------------|
REPEAT PART 2 REPEAT THIS x TIMES AND FINE:
|-------------|-------------||-------------|-------------||-------------|-------------||---2-2---2---|---3-3---3---||---0-0---0---|---0-0---0---||-5-----5-----|-5-----5-----|
Tap to rate this tab
 
# A B C D E F G H I J K L M N O P Q R S T U V W X Y Z