Ari Hest - Ive Got You tab

I've Got You
Ari Hest

Arranged by Prem Midha

CAPO on 4

Almost all of these chords are arpeggiated in the same way.  If you listen to the 
or watch my version, you should be able to figure it out pretty easily:

http://www.youtube.com/watch?v=Kmy9nkec9lo&fmt=22

E||-------3--3-----------|---------------|---------------|---------------|B||-------3--3-----------|--3------------|--3------------|--3------------|G||--2g4--------4--2--0--|--0------------|--0------------|--4------------|D||----------------------|--0------------|--0------------|--0------------|A||----------------------|---------------|---------------|---------------|E||----------------------|--3------------|--3------------|--4------------|
---------------|---------------|---------------|---------------|---------------|--3------------|--5------------|--5------------|--5------------|--5------------|--4------------|--5------------|--5------------|--6------------|--6------------|--0------------|--5------------|--5------------|--5------------|--5------------|---------------|---------------|---------------|---------------|---------------|--4------------|--5------------|--5------------|--6------------|--6------------|
---------------|---------------|----------------|---------------|--7------------|--8------------|---8------------|--8------------|--7------------|--8------------|---9------------|--8------------|--5------------|--7------------|--10------------|--7------------|---------------|---------------|----------------|---------------|--7------------|--7------------|---8------------|--8------------|
---------------|---------------|---------------|---------------|---------------|--8------------|--8------------|--5------------|--3------------|--3------------|--7------------|--7------------|--5------------|--5------------|--0------------|--0------------|--6------------|--5------------|--4------------|--0------------|---------------|--7------------|---------------|--5------------|---------------|--7------------|---------------|--5------------|---------------|--3------------|
---------------|---------------|---------------|---------------|---------------|--3------------|--3------------|--3------------|--5------------|--5------------|--0------------|--4------------|--4------------|--5------------|--5------------|--0------------|--0------------|--0------------|--5------------|--5------------|---------------|---------------|---------------|---------------|---------------|--3------------|--4------------|--4------------|--5------------|--5------------|
---------------|---------------|---------------|---------------|--5------------|--5------------|--7------------|--8------------|--6------------|--6------------|--7------------|--8------------|--5------------|--5------------|--5------------|--7------------|---------------|---------------|---------------|---------------|--6------------|--6------------|--7------------|--7------------|
----------------|---------------|---------------|---------------|---8------------|--8------------|--8------------|--8------------|---9------------|--8------------|--7------------|--7------------|--10------------|--7------------|--0------------|--6------------|----------------|---------------|---------------|--7------------|---8------------|--8------------|--7------------|---------------|
---------------|---------------|---------------|----------------|--5------------|--3------------|--5------------|--3------1------|--5------------|--5------------|--4------------|--2------0------|--5------------|--4------------|--5------------|--4------2------|---------------|--5------------|--3------------|--2------0------|--5------------|---------------|---------------|----------------|
---------------|---------------|---------------|---------------|--3------------|--3------------|--1------------|--0------------|--0------------|--0------------|--2------------|--2------------|--0------------|--0------------|--2------------|--1------------|---------------|---------------|---------------|--2------------|--3------------|--3------------|--2------------|---------------|
------------------|------------------|---------------|---------------|--0-------0----0--|--0----0--0----0--|--5------------|--2------------|--0-------0----0--|--0----0--0----0--|--4------------|--3------------|--2-------2----4--|--5----4--2----0--|--5------------|--2------------|------------------|------------------|--4------------|---------------|--0----0----------|------------------|---------------|--2------------|
---------------|---------------|---------------|---------------|---------------|--3------------|--0------------|--1------------|--1------------|--3------------|--2------------|--1------------|--0------------|--0------------|--5------------|--3------------|--0------------|--1------------|--1------------|--4------------|--2------------|---------------|--0------------|--0------------|--5------------|---------------|--0------------|---------------|---------------|---------------|
---------------|---------------|---------------|---------------|---------------|--3------------|--3------------|--3------------|--3------------|--3------------|--5------------|--0------------|--0------------|--4------------|--4------------|--4------------|--0------------|--0------------|--0------------|--0------------|--5------------|---------------|---------------|---------------|---------------|---------------|--3------------|--3------------|--4------------|--4------------|
---------------|---------------|---------------|---------------|---------------|--5------------|--5------------|--5------------|--5------------|--7------------|--5------------|--5------------|--6------------|--6------------|--7------------|--5------------|--5------------|--5------------|--5------------|--5------------|---------------|---------------|---------------|---------------|---------------|--5------------|--5------------|--6------------|--6------------|--7------------|
---------------|----------------|---------------|---------------|--8------------|---8------------|--8------------|--8------------|--8------------|---9------------|--8------------|--7------------|--7------------|--10------------|--7------------|--0------------|---------------|----------------|---------------|---------------|--7------------|---8------------|--8------------|--7------------|
---------------|---------------|---------------|---------------|---------------|--8------------|--5------------|--3------------|--3------------|--3------------|--7------------|--5------------|--5------------|--0------------|--0------------|--6------------|--5------------|--4------------|--0------------|--0------------|--7------------|---------------|--5------------|---------------|---------------|---------------|--5------------|---------------|--3------------|--3------------|
---------------|---------------|---------------|---------------|---------------|--3------------|--3------------|--5------------|--5------------|--5------------|--4------------|--4------------|--5------------|--5------------|--6------------|--0------------|--0------------|--5------------|--5------------|--5------------|---------------|---------------|---------------|---------------|---------------|--4------------|--4------------|--5------------|--5------------|--6------------|
---------------|---------------|---------------|----------------|--5------------|--7------------|--8------------|---8------------|--6------------|--7------------|--8------------|---9------------|--5------------|--5------------|--7------------|--10------------|---------------|---------------|---------------|----------------|--6------------|--7------------|--7------------|---8------------|
---------------|---------------|---------------|---------------|---------------|--8------------|--8------------|--8------------|--5------------|--3------------|--8------------|--7------------|--7------------|--5------------|--5------------|--7------------|--0------------|--6------------|--5------------|--4------------|---------------|---------------|--7------------|---------------|--5------------|--8------------|--7------------|---------------|--5------------|---------------|
---------------|----------------|---------------|---------------|--5------------|--3------1------|--3------------|--3------------|--4------------|--2------0------|--0------------|--0------------|--5------------|--4------2------|--0------------|--0------------|--3------------|--2------0------|---------------|---------------|---------------|----------------|--3------------|--3------------|
---------------|---------------|------------------|------------------|--1------------|--0------------|--0-------0----0--|--0----0--0----0--|--2------------|--2------------|--0-------0----0--|--0----0--0----0--|--2------------|--1------------|--2-------2----4--|--5----4--2----0--|---------------|--2------------|------------------|------------------|--2------------|---------------|--0----0----------|------------------|
---------------|---------------|---------------|---------------|---------------|--5------------|--2------------|--3------------|--0------------|--1------------|--4------------|--3------------|--2------------|--1------------|--0------------|--5------------|--2------------|--3------------|--0------------|--1------------|--4------------|---------------|--2------------|---------------|--0------------|---------------|--2------------|---------------|--0------------|---------------|
---------------|---------------|---------------|---------------|---------------|--1------------|--3------------|--3------------|--3------------|--3------------|--0------------|--5------------|--5------------|--0------------|--0------------|--1------------|--4------------|--4------------|--0------------|--0------------|--0------------|--5------------|--5------------|---------------|---------------|---------------|---------------|---------------|--3------------|--3------------|
---------------|---------------|---------------|---------------|---------------|--3------------|--3------------|--5------------|--5------------|--5------------|--4------------|--4------------|--5------------|--5------------|--6------------|--0------------|--0------------|--5------------|--5------------|--5------------|---------------|---------------|---------------|---------------|---------------|--4------------|--4------------|--5------------|--5------------|--6------------|
---------------|---------------|---------------|----------------|--5------------|--7------------|--8------------|---8------------|--6------------|--7------------|--8------------|---9------------|--5------------|--5------------|--7------------|--10------------|---------------|---------------|---------------|----------------|--6------------|--7------------|--7------------|---8------------|
---------------|---------------|---------------|---------------|---------------|--8------------|--8------------|--8------------|--5------------|--3------------|--8------------|--7------------|--7------------|--5------------|--5------------|--7------------|--0------------|--6------------|--5------------|--4------------|---------------|---------------|--7------------|---------------|--5------------|--8------------|--7------------|---------------|--5------------|---------------|
---------------|---------------|---------------|---------------|--4------------|--4------------|---------------|---------------|--3------------|--3------------|--2------------|--3------------|--5------------|--5------------|--1------------|--1------------|--3------------|--3------------|--3------------|--3------------|---------------|---------------|--1------------|--1------------|
----------------||--2--------3----||--0--------0----||--0--------0----||----------------||--3--------3----||
Tap to rate this tab
 
# A B C D E F G H I J K L M N O P Q R S T U V W X Y Z