Aria - Code tab

Code (1997 - Kipelov)

|-----------12~-|------------||--------(12)---|------(12)~-||-----(12)------|---8--------||---9-----------|------------||---------------|-9----------||-0-------------|------------|
|------------------|-----(12)---||--------(12)------|------------||------(12)-(12)---|------------||----(12)-----(12)-|---------11-||--10--------------|--12--------||------------------|------------|
|------0-|-0----|-2----|---------||-----1--|--0---|---3--|---------||----2---|---0--|-----2|--------0||---2----|------|-0----|-020--2--||-0------|------|------|----3----||--------|-0----|------|---------|
|-----------12~-|------------||--------(12)---|------(12)~-||-----(12)------|---8--------||---9-----------|------------||---------------|-9----------||-0-------------|------------|
|------------------|-----(12)---||--------(12)------|------------||------(12)-(12)---|------------||----(12)-----(12)-|---------11-||--10--------------|--12--------||------------------|------------|
|------0-|-0----|-------|-0~~~~-||-----1--|--0---|-4-----|-0~~~~-||----2---|---0--|---4---|-0~~~~-||---2----|------|-----4-|-------||-0------|------|-2-----|-------||--------|-0----|-------|-0~~~~-|
|-----------8|-3------|-2-------||---------8--|--------|---3-----||-------9----|----4---|-----2---||----10------|------5-|-0-------||------------|--------|---------||--8---------|-3------|---------|
|-----------|---------||-----------|---------||--------0--|---------||-020--2----|---------||----3------|---------||-----------|---0~~~~-|
Tap to rate this tab
 
# A B C D E F G H I J K L M N O P Q R S T U V W X Y Z