Arturo Zambo Cavero - Cada Domingo A Las Doce tab

____Zambo Cavero ///// /////Cada domingo a las doce //P//E R//U// /////____/////|--------------------------------||--------------------------------||---------------8-7--------------||-----5-5-7-8-5-8-7--------------||-4h5---5-------6-5--------------||--------------------------------|
|--------------------------------||--------------------------------||-----------5-8-7-5-3-2-3--------||-----4-7-8-----8-7-5-4-5--------||-4h5----------------------------||--------------------------------|
|--------------------------------||--------------------------------||-------------8-7----------------||---5-5-7-8-5-8-7----------------||-5------------------------------||--------------------------------|
|-11-11-13-11-11h13p11-10--||-13-13-13-13-13-------11--||--------------------------||--------------------------||--------------------------||--------------------------|
|--10-10-10-10-11-10-10--8-10---10---10----||--12-12-12-12-11-11-11-10-----------------||------------------------------------------||------------------------------------------||------------------------------------------||----------------------------10----10---10-|
E Am Cuando tengas que partir quiero que sepas A7 que estaré pensando en ti Dm todos mis días Am vivirás en mi alegría y mi tristeza F E reinaras en el altar del alma mía Am al partir me dejaras tus agonías A7 Dm y en la casa que sin ti quedo muy triste Am nadie ocupara el lugar que tu tenias F E Am porque se murió mi amor cuando te fuiste Dm Cada domingo a las doce saldré a la ventana Am para esperarte como antes después de la misa E y en la esquina solitaria voy a ver a mi alma Am E Am que espera tus pasos buscando mis brazos y sin tu sonrisa
|--------------5-6---||------------8-------||----------7---------||---5--7-8-----------||-5------------------||--------------------|
Am se ira el sol de la mañana E te lloraran las campanas Am E cada domingo a las doce después Am después de la misa
|-11-11-13-11-11h13p11-10--||-13-13-13-13-13-------11--||--------------------------||--------------------------||--------------------------||--------------------------|
|--10-10-10-10-11-10-10--8-10---10---10----||--12-12-12-12-11-11-11-10-----------------||------------------------------------------||------------------------------------------||------------------------------------------||----------------------------10----10---10-|
Dm Cada domingo a las doce saldré a la ventana Am para esperarte te como antes después de la misa E y en la esquina solitaria voy a ver a mi alma Am E Am que espera tus pasos buscando mis brazos y sin tu sonrisa
|--------------5-6---||------------8-------||----------7---------||---5--7-8-----------||-5------------------||--------------------|
Am se ira el sol de la mañana E te lloraran las campanas Am E cada domingo a las doce después Am después de la misa
OutroCuando tengas que partir.... quiero que sepas...|-------------------------------0--||-------------------------------1--||-------------------------------2--||-------------5--7-8-7-5-4-5----2--||-5-5---------------------------0--||-------------------------------0--|
Tap to rate this tab
 
# A B C D E F G H I J K L M N O P Q R S T U V W X Y Z